  0
SECTION
  2
HEADER
  9
$ACADVER
  1
AC1009
  9
$INSBASE
 10
0.0
 20
0.0
 30
0.0
  9
$EXTMIN
 10
-1968.23333333
 20
-1471.08333333
 30
0.0
  9
$EXTMAX
 10
2099.9
 20
1445.25
 30
0.0
  9
$LIMMIN
 10
-2095.3625
 20
-1562.21875
  9
$LIMMAX
 10
2227.02916667
 20
1536.38541667
  9
$ORTHOMODE
 70
       0
  9
$REGENMODE
 70
       1
  9
$FILLMODE
 70
       1
  9
$QTEXTMODE
 70
       0
  9
$MIRRTEXT
 70
       1
  9
$DRAGMODE
 70
       2
  9
$LTSCALE
 40
1.0
  9
$OSMODE
 70
       0
  9
$ATTMODE
 70
       1
  9
$TEXTSIZE
 40
0.2
  9
$TRACEWID
 40
0.05
  9
$TEXTSTYLE
  7
STANDARD
  9
$CLAYER
  8
0
  9
$CELTYPE
  6
CONTINUOUS
  9
$CECOLOR
 62
     256
  9
$DIMSCALE
 40
1.0
  9
$DIMASZ
 40
0.18
  9
$DIMEXO
 40
0.0625
  9
$DIMDLI
 40
0.38
  9
$DIMRND
 40
0.0
  9
$DIMDLE
 40
0.0
  9
$DIMEXE
 40
0.18
  9
$DIMTP
 40
0.0
  9
$DIMTM
 40
0.0
  9
$DIMTXT
 40
0.18
  9
$DIMCEN
 40
0.09
  9
$DIMTSZ
 40
0.0
  9
$DIMTOL
 70
       0
  9
$DIMLIM
 70
       0
  9
$DIMTIH
 70
       1
  9
$DIMTOH
 70
       1
  9
$DIMSE1
 70
       0
  9
$DIMSE2
 70
       0
  9
$DIMTAD
 70
       0
  9
$DIMZIN
 70
       0
  9
$DIMBLK
  1

  9
$DIMASO
 70
       1
  9
$DIMSHO
 70
       1
  9
$DIMPOST
  1

  9
$DIMAPOST
  1

  9
$DIMALT
 70
       0
  9
$DIMALTD
 70
       2
  9
$DIMALTF
 40
25.4
  9
$DIMLFAC
 40
1.0
  9
$DIMTOFL
 70
       0
  9
$DIMTVP
 40
0.0
  9
$DIMTIX
 70
       0
  9
$DIMSOXD
 70
       0
  9
$DIMSAH
 70
       0
  9
$DIMBLK1
  1

  9
$DIMBLK2
  1

  9
$DIMSTYLE
  2
STANDARD
  9
$DIMCLRD
 70
       0
  9
$DIMCLRE
 70
       0
  9
$DIMCLRT
 70
       0
  9
$DIMTFAC
 40
1.0
  9
$DIMGAP
 40
0.09
  9
$LUNITS
 70
       2
  9
$LUPREC
 70
       4
  9
$AXISMODE
 70
       0
  9
$AXISUNIT
 10
0.0
 20
0.0
  9
$SKETCHINC
 40
0.1
  9
$FILLETRAD
 40
0.0
  9
$AUNITS
 70
       0
  9
$AUPREC
 70
       0
  9
$MENU
  1
acad
  9
$ELEVATION
 40
0.0
  9
$PELEVATION
 40
0.0
  9
$THICKNESS
 40
0.0
  9
$LIMCHECK
 70
       0
  9
$BLIPMODE
 70
       1
  9
$CHAMFERA
 40
0.0
  9
$CHAMFERB
 40
0.0
  9
$SKPOLY
 70
       0
  9
$TDCREATE
 40
0.000000000
  9
$TDUPDATE
 40
0.000000000
  9
$TDINDWG
 40
0.0000000000
  9
$TDUSRTIMER
 40
0.0000000000
  9
$USRTIMER
 70
       1
  9
$ANGBASE
 50
0.0
  9
$ANGDIR
 70
       0
  9
$PDMODE
 70
       0
  9
$PDSIZE
 40
1.0
  9
$PLINEWID
 40
0.0
  9
$COORDS
 70
       1
  9
$SPLFRAME
 70
       0
  9
$SPLINETYPE
 70
       6
  9
$SPLINESEGS
 70
       8
  9
$ATTDIA
 70
       0
  9
$ATTREQ
 70
       1
  9
$HANDLING
 70
       1
  9
$HANDSEED
  5
550
  9
$SURFTAB1
 70
       6
  9
$SURFTAB2
 70
       6
  9
$SURFTYPE
 70
       6
  9
$SURFU
 70
       6
  9
$SURFV
 70
       6
  9
$UCSNAME
  2

  9
$UCSORG
 10
0.0
 20
0.0
 30
0.0
  9
$UCSXDIR
 10
1.0
 20
0.0
 30
0.0
  9
$UCSYDIR
 10
0.0
 20
1.0
 30
0.0
  9
$PUCSNAME
  2

  9
$PUCSORG
 10
0.0
 20
0.0
 30
0.0
  9
$PUCSXDIR
 10
1.0
 20
0.0
 30
0.0
  9
$PUCSYDIR
 10
0.0
 20
1.0
 30
0.0
  9
$USERI1
 70
       0
  9
$USERI2
 70
       0
  9
$USERI3
 70
       0
  9
$USERI4
 70
       0
  9
$USERI5
 70
       0
  9
$USERR1
 40
0.0
  9
$USERR2
 40
0.0
  9
$USERR3
 40
0.0
  9
$USERR4
 40
0.0
  9
$USERR5
 40
0.0
  9
$WORLDVIEW
 70
       1
  9
$SHADEDGE
 70
       3
  9
$SHADEDIF
 70
      70
  9
$TILEMODE
 70
       1
  9
$MAXACTVP
 70
      16
  9
$PINSBASE
 10
0.0
 20
0.0
 30
0.0
  9
$PLIMCHECK
 70
       0
  9
$PEXTMIN
 10
1.00000000E+20
 20
1.00000000E+20
 30
1.00000000E+20
  9
$PEXTMAX
 10
-1.00000000E+20
 20
-1.00000000E+20
 30
-1.00000000E+20
  9
$PLIMMIN
 10
0.0
 20
0.0
  9
$PLIMMAX
 10
12.0
 20
9.0
  9
$UNITMODE
 70
       0
  9
$VISRETAIN
 70
       0
  9
$PLINEGEN
 70
       1
  9
$PSLTSCALE
 70
       0
  9
$TREEDEPTH
 70
    3020
  9
$DWGCODEPAGE
  3
dos932
  0
ENDSEC
  0
SECTION
  2
TABLES
  0
TABLE
  2
VPORT
 70
       1
  0
VPORT
  2
*ACTIVE
 70
       0
 10
0.0
 20
0.0
 11
1.0
 21
1.0
 12
65.83333333
 22
-12.91666667
 13
0.0
 23
0.0
 14
1.0
 24
1.0
 15
0.0
 25
0.0
 16
0.0
 26
0.0
 36
1.0
 17
0.0
 27
0.0
 37
0.0
 40
3098.60416667
 41
1.39494799
 42
50.0
 43
0.0
 44
0.0
 50
0.0
 51
0.0
 71
       0
 72
     100
 73
       1
 74
       1
 75
       0
 76
       0
 77
       0
 78
       0
  0
ENDTAB
  0
TABLE
  2
LTYPE
 70
      28
  0
LTYPE
  2
CONTINUOUS
 70
      64
  3
Solid line
 72
      65
 73
       0
 40
0.0
  0
LTYPE
  2
HIDDENX2
 70
      64
  3
CADPAC LINETYPE
 72
      65
 73
       2
 40
168.0
 49
126.0
 49
-42.0
  0
LTYPE
  2
HIDDEN
 70
      64
  3
CADPAC LINETYPE
 72
      65
 73
       2
 40
126.0
 49
84.0
 49
-42.0
  0
LTYPE
  2
HIDDEN2
 70
      64
  3
CADPAC LINETYPE
 72
      65
 73
       2
 40
105.0
 49
63.0
 49
-42.0
  0
LTYPE
  2
DASHED
 70
      64
  3
CADPAC LINETYPE
 72
      65
 73
       2
 40
126.0
 49
84.0
 49
-42.0
  0
LTYPE
  2
DASHED2
 70
      64
  3
CADPAC LINETYPE
 72
      65
 73
       2
 40
94.5
 49
63.0
 49
-31.5
  0
LTYPE
  2
DASHEDX2
 70
      64
  3
CADPAC LINETYPE
 72
      65
 73
       2
 40
189.0
 49
126.0
 49
-63.0
  0
LTYPE
  2
DOTX2
 70
      64
  3
CADPAC LINETYPE
 72
      65
 73
       2
 40
52.5
 49
0.0
 49
-52.5
  0
LTYPE
  2
DOT
 70
      64
  3
CADPAC LINETYPE
 72
      65
 73
       2
 40
42.0
 49
0.0
 49
-42.0
  0
LTYPE
  2
DOT2
 70
      64
  3
CADPAC LINETYPE
 72
      65
 73
       2
 40
31.5
 49
0.0
 49
-31.5
  0
LTYPE
  2
CENTERX2
 70
      64
  3
CADPAC LINETYPE
 72
      65
 73
       4
 40
252.0
 49
105.0
 49
-52.5
 49
42.0
 49
-52.5
  0
LTYPE
  2
CENTER
 70
      64
  3
CADPAC LINETYPE
 72
      65
 73
       4
 40
193.2
 49
84.0
 49
-42.0
 49
25.2
 49
-42.0
  0
LTYPE
  2
CENTER2
 70
      64
  3
CADPAC LINETYPE
 72
      65
 73
       4
 40
134.4
 49
63.0
 49
-31.5
 49
8.4
 49
-31.5
  0
LTYPE
  2
DASHDOTX2
 70
      64
  3
CADPAC LINETYPE
 72
      65
 73
       4
 40
210.0
 49
105.0
 49
-52.5
 49
0.0
 49
-52.5
  0
LTYPE
  2
DASHDOT
 70
      64
  3
CADPAC LINETYPE
 72
      65
 73
       4
 40
168.0
 49
84.0
 49
-42.0
 49
0.0
 49
-42.0
  0
LTYPE
  2
DASHDOT2
 70
      64
  3
CADPAC LINETYPE
 72
      65
 73
       4
 40
126.0
 49
63.0
 49
-31.5
 49
0.0
 49
-31.5
  0
LTYPE
  2
DIVIDEX2
 70
      64
  3
CADPAC LINETYPE
 72
      65
 73
       6
 40
262.5
 49
105.0
 49
-52.5
 49
0.0
 49
-52.5
 49
0.0
 49
-52.5
  0
LTYPE
  2
DIVIDE
 70
      64
  3
CADPAC LINETYPE
 72
      65
 73
       6
 40
210.0
 49
84.0
 49
-42.0
 49
0.0
 49
-42.0
 49
0.0
 49
-42.0
  0
LTYPE
  2
DIVIDE2
 70
      64
  3
CADPAC LINETYPE
 72
      65
 73
       6
 40
157.5
 49
63.0
 49
-31.5
 49
0.0
 49
-31.5
 49
0.0
 49
-31.5
  0
LTYPE
  2
BORDERX2
 70
      64
  3
CADPAC LINETYPE
 72
      65
 73
       6
 40
367.5
 49
105.0
 49
-52.5
 49
105.0
 49
-52.5
 49
0.0
 49
-52.5
  0
LTYPE
  2
BORDER
 70
      64
  3
CADPAC LINETYPE
 72
      65
 73
       6
 40
294.0
 49
84.0
 49
-42.0
 49
84.0
 49
-42.0
 49
0.0
 49
-42.0
  0
LTYPE
  2
BORDER2
 70
      64
  3
CADPAC LINETYPE
 72
      65
 73
       6
 40
220.5
 49
63.0
 49
-31.5
 49
63.0
 49
-31.5
 49
0.0
 49
-31.5
  0
LTYPE
  2
PHANTOMX2
 70
      64
  3
CADPAC LINETYPE
 72
      65
 73
       6
 40
315.0
 49
105.0
 49
-42.0
 49
42.0
 49
-42.0
 49
42.0
 49
-42.0
  0
LTYPE
  2
PHANTOM
 70
      64
  3
CADPAC LINETYPE
 72
      65
 73
       6
 40
260.4
 49
84.0
 49
-42.0
 49
25.2
 49
-42.0
 49
25.2
 49
-42.0
  0
LTYPE
  2
PHANTOM2
 70
      64
  3
CADPAC LINETYPE
 72
      65
 73
       6
 40
222.6
 49
63.0
 49
-42.0
 49
16.8
 49
-42.0
 49
16.8
 49
-42.0
  0
LTYPE
  2
ACAD_ISO06W100
 70
      64
  3
CADPAC LINETYPE
 72
      65
 73
       8
 40
283.5
 49
105.0
 49
-52.5
 49
0.0
 49
-42.0
 49
0.0
 49
-42.0
 49
0.0
 49
-42.0
  0
LTYPE
  2
ACAD_ISO13W100
 70
      64
  3
CADPAC LINETYPE
 72
      65
 73
       8
 40
336.0
 49
84.0
 49
-42.0
 49
84.0
 49
-42.0
 49
0.0
 49
-42.0
 49
0.0
 49
-42.0
  0
LTYPE
  2
ACAD_ISO14W100
 70
      64
  3
CADPAC LINETYPE
 72
      65
 73
       8
 40
252.0
 49
84.0
 49
-42.0
 49
0.0
 49
-42.0
 49
0.0
 49
-42.0
 49
0.0
 49
-42.0
  0
ENDTAB
  0
TABLE
  2
LAYER
 70
       8
  0
LAYER
  2
0
 70
       0
 62
       7
  6
CONTINUOUS
  0
LAYER
  2
LAYER0001
 70
       0
 62
       7
  6
CONTINUOUS
  0
LAYER
  2
LAYER0002
 70
       0
 62
       7
  6
CONTINUOUS
  0
LAYER
  2
LAYER0004
 70
       0
 62
       7
  6
CONTINUOUS
  0
LAYER
  2
LAYER0005
 70
       0
 62
       7
  6
CONTINUOUS
  0
LAYER
  2
LAYER0016
 70
       0
 62
       7
  6
CONTINUOUS
  0
LAYER
  2
LAYER0017
 70
       0
 62
       7
  6
CONTINUOUS
  0
LAYER
  2
ZUWAKU
 70
       0
 62
       7
  6
CONTINUOUS
  0
ENDTAB
  0
TABLE
  2
STYLE
 70
       1
  0
STYLE
  2
STANDARD
 70
       0
 40
0.0
 41
0.75
 50
0.0
 71
       0
 42
50.0
  3
txt.shx
  4
bigfont.shx
  0
ENDTAB
  0
TABLE
  2
VIEW
 70
       0
  0
VIEW
  2
QQQQ
 70
       0
 40
3098.60416667
 10
65.83333333
 20
-12.91666667
 41
4322.39166667
 11
0.0
 21
0.0
 31
1.0
 12
100.0
 22
100.0
 32
0.0
 42
50.0
 43
0.0
 44
0.0
 50
0.0
 71
       0
  0
ENDTAB
  0
TABLE
  2
UCS
 70
       0
  0
ENDTAB
  0
TABLE
  2
APPID
 70
       1
  0
APPID
  2
ACAD
 70
       0
  0
ENDTAB
  0
TABLE
  2
DIMSTYLE
 70
       1
  0
DIMSTYLE
  2
STANDARD
 70
       0
  3

  4

  5

  6

  7

 40
1.0
 41
0.18
 42
0.0625
 43
0.38
 44
0.18
 45
0.0
 46
0.0
 47
0.0
 48
0.0
 71
       0
 72
       0
 73
       1
 74
       1
 75
       0
 76
       0
 77
       0
 78
       0
140
0.18
141
0.09
142
0.0
143
25.4
144
1.0
145
0.0
146
1.0
147
0.09
170
       0
171
       2
172
       0
173
       0
174
       0
175
       0
176
       0
177
       0
178
       0
  0
ENDTAB
  0
ENDSEC
  0
SECTION
  2
BLOCKS
  0
BLOCK
  8
0
  5
66
  2
_OPEN30
 70
       0
 10
0.0
 20
0.0
 30
0.0
  3
_OPEN30
  0
LINE
  8
LAYER0001
  6
CONTINUOUS
 62
       0
  5
67
 10
0.0
 20
0.0
 30
0.0
 11
-0.96592583
 21
0.25881905
 31
0.0
  0
LINE
  8
LAYER0001
  6
CONTINUOUS
 62
       0
  5
68
 10
0.0
 20
0.0
 30
0.0
 11
-0.96592583
 21
-0.25881905
 31
0.0
  0
LINE
  8
LAYER0001
  6
CONTINUOUS
 62
       0
  5
69
 10
0.0
 20
0.0
 30
0.0
 11
-0.96592583
 21
0.0
 31
0.0
  0
ENDBLK
  8
0
  5
6A
  0
BLOCK
  8
0
  5
6B
  2
GROUP_1
 70
       0
 10
0.0
 20
0.0
 30
0.0
  3
GROUP_1
  0
LINE
  8
0
  6
CONTINUOUS
 62
       7
  5
6C
 10
-1273.01746178
 20
-579.92146405
 30
0.0
 11
-1273.01746178
 21
118.37831126
 31
0.0
  0
LINE
  8
0
  6
CONTINUOUS
 62
       7
  5
6D
 10
-1285.51746178
 20
-579.92146405
 30
0.0
 11
-1215.51746178
 21
-579.92146405
 31
0.0
  0
LINE
  8
0
  6
CONTINUOUS
 62
       7
  5
6E
 10
-1215.51746178
 20
-579.92146405
 30
0.0
 11
-1215.51746178
 21
118.37831126
 31
0.0
  0
LINE
  8
0
  6
CONTINUOUS
 62
       7
  5
6F
 10
-1285.51746178
 20
-579.92146405
 30
0.0
 11
-1285.51746178
 21
118.37831126
 31
0.0
  0
INSERT
  8
0
  6
CONTINUOUS
  5
70
  2
GROUP_2
 10
0.0
 20
0.0
 30
0.0
  0
INSERT
  8
0
  6
CONTINUOUS
  5
71
  2
GROUP_3
 10
0.0
 20
0.0
 30
0.0
  0
INSERT
  8
0
  6
CONTINUOUS
  5
72
  2
GROUP_4
 10
0.0
 20
0.0
 30
0.0
  0
INSERT
  8
0
  6
CONTINUOUS
  5
73
  2
GROUP_5
 10
0.0
 20
0.0
 30
0.0
  0
INSERT
  8
0
  6
CONTINUOUS
  5
74
  2
GROUP_6
 10
0.0
 20
0.0
 30
0.0
  0
INSERT
  8
0
  6
CONTINUOUS
  5
75
  2
GROUP_7
 10
0.0
 20
0.0
 30
0.0
  0
ENDBLK
  8
0
  5
76
  0
BLOCK
  8
0
  5
77
  2
GROUP_2
 70
       0
 10
0.0
 20
0.0
 30
0.0
  3
GROUP_2
  0
ARC
  8
0
  6
CONTINUOUS
 62
       7
  5
78
 10
-1236.51746178
 20
-301.42146405
 30
0.0
 40
7.0
 50
270.0
 51
450.0
  0
ARC
  8
0
  6
CONTINUOUS
 62
       7
  5
79
 10
-1251.51746178
 20
-301.42146405
 30
0.0
 40
7.0
 50
90.0
 51
270.0
  0
LINE
  8
0
  6
CONTINUOUS
 62
       7
  5
7A
 10
-1236.51746178
 20
-294.42146405
 30
0.0
 11
-1251.51746178
 21
-294.42146405
 31
0.0
  0
LINE
  8
0
  6
CONTINUOUS
 62
       7
  5
7B
 10
-1236.51746178
 20
-308.42146405
 30
0.0
 11
-1251.51746178
 21
-308.42146405
 31
0.0
  0
ENDBLK
  8
0
  5
7C
  0
BLOCK
  8
0
  5
7D
  2
GROUP_3
 70
       0
 10
0.0
 20
0.0
 30
0.0
  3
GROUP_3
  0
ARC
  8
0
  6
CONTINUOUS
 62
       7
  5
7E
 10
-1236.51746178
 20
-351.42146405
 30
0.0
 40
7.0
 50
270.0
 51
450.0
  0
ARC
  8
0
  6
CONTINUOUS
 62
       7
  5
7F
 10
-1251.51746178
 20
-351.42146405
 30
0.0
 40
7.0
 50
90.0
 51
270.0
  0
LINE
  8
0
  6
CONTINUOUS
 62
       7
  5
80
 10
-1236.51746178
 20
-344.42146405
 30
0.0
 11
-1251.51746178
 21
-344.42146405
 31
0.0
  0
LINE
  8
0
  6
CONTINUOUS
 62
       7
  5
81
 10
-1236.51746178
 20
-358.42146405
 30
0.0
 11
-1251.51746178
 21
-358.42146405
 31
0.0
  0
ENDBLK
  8
0
  5
82
  0
BLOCK
  8
0
  5
83
  2
GROUP_4
 70
       0
 10
0.0
 20
0.0
 30
0.0
  3
GROUP_4
  0
ARC
  8
0
  6
CONTINUOUS
 62
       7
  5
84
 10
-1236.51746178
 20
-401.42146405
 30
0.0
 40
7.0
 50
270.0
 51
450.0
  0
ARC
  8
0
  6
CONTINUOUS
 62
       7
  5
85
 10
-1251.51746178
 20
-401.42146405
 30
0.0
 40
7.0
 50
90.0
 51
270.0
  0
LINE
  8
0
  6
CONTINUOUS
 62
       7
  5
86
 10
-1236.51746178
 20
-394.42146405
 30
0.0
 11
-1251.51746178
 21
-394.42146405
 31
0.0
  0
LINE
  8
0
  6
CONTINUOUS
 62
       7
  5
87
 10
-1236.51746178
 20
-408.42146405
 30
0.0
 11
-1251.51746178
 21
-408.42146405
 31
0.0
  0
ENDBLK
  8
0
  5
88
  0
BLOCK
  8
0
  5
89
  2
GROUP_5
 70
       0
 10
0.0
 20
0.0
 30
0.0
  3
GROUP_5
  0
ARC
  8
0
  6
CONTINUOUS
 62
       7
  5
8A
 10
-1236.51746178
 20
-451.42146405
 30
0.0
 40
7.0
 50
270.0
 51
450.0
  0
ARC
  8
0
  6
CONTINUOUS
 62
       7
  5
8B
 10
-1251.51746178
 20
-451.42146405
 30
0.0
 40
7.0
 50
90.0
 51
270.0
  0
LINE
  8
0
  6
CONTINUOUS
 62
       7
  5
8C
 10
-1236.51746178
 20
-444.42146405
 30
0.0
 11
-1251.51746178
 21
-444.42146405
 31
0.0
  0
LINE
  8
0
  6
CONTINUOUS
 62
       7
  5
8D
 10
-1236.51746178
 20
-458.42146405
 30
0.0
 11
-1251.51746178
 21
-458.42146405
 31
0.0
  0
ENDBLK
  8
0
  5
8E
  0
BLOCK
  8
0
  5
8F
  2
GROUP_6
 70
       0
 10
0.0
 20
0.0
 30
0.0
  3
GROUP_6
  0
ARC
  8
0
  6
CONTINUOUS
 62
       7
  5
90
 10
-1236.51746178
 20
-501.42146405
 30
0.0
 40
7.0
 50
270.0
 51
450.0
  0
ARC
  8
0
  6
CONTINUOUS
 62
       7
  5
91
 10
-1251.51746178
 20
-501.42146405
 30
0.0
 40
7.0
 50
90.0
 51
270.0
  0
LINE
  8
0
  6
CONTINUOUS
 62
       7
  5
92
 10
-1236.51746178
 20
-494.42146405
 30
0.0
 11
-1251.51746178
 21
-494.42146405
 31
0.0
  0
LINE
  8
0
  6
CONTINUOUS
 62
       7
  5
93
 10
-1236.51746178
 20
-508.42146405
 30
0.0
 11
-1251.51746178
 21
-508.42146405
 31
0.0
  0
ENDBLK
  8
0
  5
94
  0
BLOCK
  8
0
  5
95
  2
GROUP_7
 70
       0
 10
0.0
 20
0.0
 30
0.0
  3
GROUP_7
  0
ARC
  8
0
  6
CONTINUOUS
 62
       7
  5
96
 10
-1236.51746178
 20
-551.42146405
 30
0.0
 40
7.0
 50
270.0
 51
450.0
  0
ARC
  8
0
  6
CONTINUOUS
 62
       7
  5
97
 10
-1251.51746178
 20
-551.42146405
 30
0.0
 40
7.0
 50
90.0
 51
270.0
  0
LINE
  8
0
  6
CONTINUOUS
 62
       7
  5
98
 10
-1236.51746178
 20
-544.42146405
 30
0.0
 11
-1251.51746178
 21
-544.42146405
 31
0.0
  0
LINE
  8
0
  6
CONTINUOUS
 62
       7
  5
99
 10
-1236.51746178
 20
-558.42146405
 30
0.0
 11
-1251.51746178
 21
-558.42146405
 31
0.0
  0
ENDBLK
  8
0
  5
9A
  0
BLOCK
  8
0
  5
9B
  2
GROUP_8
 70
       0
 10
0.0
 20
0.0
 30
0.0
  3
GROUP_8
  0
LINE
  8
0
  6
CONTINUOUS
 62
       7
  5
9C
 10
-1499.01746178
 20
168.37831126
 30
0.0
 11
-1499.01746178
 21
367.26996975
 31
0.0
  0
LINE
  8
0
  6
CONTINUOUS
 62
       7
  5
9D
 10
-1499.01746178
 20
367.26996975
 30
0.0
 11
-1449.01746178
 21
417.26996975
 31
0.0
  0
LINE
  8
0
  6
CONTINUOUS
 62
       7
  5
9E
 10
-1449.01746178
 20
118.37831126
 30
0.0
 11
-1499.01746178
 21
168.37831126
 31
0.0
  0
LINE
  8
0
  6
CONTINUOUS
 62
       7
  5
9F
 10
200.98253822
 20
168.37831126
 30
0.0
 11
200.98253822
 21
367.26996975
 31
0.0
  0
LINE
  8
0
  6
CONTINUOUS
 62
       7
  5
A0
 10
150.98253822
 20
417.26996975
 30
0.0
 11
200.98253822
 21
367.26996975
 31
0.0
  0
LINE
  8
0
  6
CONTINUOUS
 62
       7
  5
A1
 10
200.98253822
 20
168.37831126
 30
0.0
 11
150.98253822
 21
118.37831126
 31
0.0
  0
LINE
  8
0
  6
CONTINUOUS
 62
       7
  5
A2
 10
-1449.01746178
 20
417.26996975
 30
0.0
 11
150.98253822
 21
417.26996975
 31
0.0
  0
LINE
  8
0
  6
CONTINUOUS
 62
       7
  5
A3
 10
-1449.01746178
 20
118.37831126
 30
0.0
 11
150.98253822
 21
118.37831126
 31
0.0
  0
LINE
  8
0
  6
CONTINUOUS
 62
       9
  5
A4
 10
200.98253822
 20
189.25758534
 30
0.0
 11
-1499.01746178
 21
189.25758534
 31
0.0
  0
LINE
  8
0
  6
CONTINUOUS
 62
       9
  5
A5
 10
200.98253822
 20
347.46396938
 30
0.0
 11
-1499.01746178
 21
347.46396938
 31
0.0
  0
ENDBLK
  8
0
  5
A6
  0
BLOCK
  8
0
  5
A7
  2
GROUP_9
 70
       0
 10
0.0
 20
0.0
 30
0.0
  3
GROUP_9
  0
LINE
  8
0
  6
CONTINUOUS
 62
       7
  5
A8
 10
-25.01746178
 20
-579.92146405
 30
0.0
 11
-25.01746178
 21
118.37831126
 31
0.0
  0
LINE
  8
0
  6
CONTINUOUS
 62
       7
  5
A9
 10
-12.51746178
 20
-579.92146405
 30
0.0
 11
-82.51746178
 21
-579.92146405
 31
0.0
  0
LINE
  8
0
  6
CONTINUOUS
 62
       7
  5
AA
 10
-82.51746178
 20
-579.92146405
 30
0.0
 11
-82.51746178
 21
118.37831126
 31
0.0
  0
LINE
  8
0
  6
CONTINUOUS
 62
       7
  5
AB
 10
-12.51746178
 20
-579.92146405
 30
0.0
 11
-12.51746178
 21
118.37831126
 31
0.0
  0
INSERT
  8
0
  6
CONTINUOUS
  5
AC
  2
GROUP_10
 10
0.0
 20
0.0
 30
0.0
  0
INSERT
  8
0
  6
CONTINUOUS
  5
AD
  2
GROUP_11
 10
0.0
 20
0.0
 30
0.0
  0
INSERT
  8
0
  6
CONTINUOUS
  5
AE
  2
GROUP_12
 10
0.0
 20
0.0
 30
0.0
  0
INSERT
  8
0
  6
CONTINUOUS
  5
AF
  2
GROUP_13
 10
0.0
 20
0.0
 30
0.0
  0
INSERT
  8
0
  6
CONTINUOUS
  5
B0
  2
GROUP_14
 10
0.0
 20
0.0
 30
0.0
  0
INSERT
  8
0
  6
CONTINUOUS
  5
B1
  2
GROUP_15
 10
0.0
 20
0.0
 30
0.0
  0
ENDBLK
  8
0
  5
B2
  0
BLOCK
  8
0
  5
B3
  2
GROUP_10
 70
       0
 10
0.0
 20
0.0
 30
0.0
  3
GROUP_10
  0
ARC
  8
0
  6
CONTINUOUS
 62
       7
  5
B4
 10
-61.51746178
 20
-301.42146405
 30
0.0
 40
7.0
 50
90.0
 51
270.0
  0
ARC
  8
0
  6
CONTINUOUS
 62
       7
  5
B5
 10
-46.51746178
 20
-301.42146405
 30
0.0
 40
7.0
 50
270.0
 51
450.0
  0
LINE
  8
0
  6
CONTINUOUS
 62
       7
  5
B6
 10
-61.51746178
 20
-294.42146405
 30
0.0
 11
-46.51746178
 21
-294.42146405
 31
0.0
  0
LINE
  8
0
  6
CONTINUOUS
 62
       7
  5
B7
 10
-61.51746178
 20
-308.42146405
 30
0.0
 11
-46.51746178
 21
-308.42146405
 31
0.0
  0
ENDBLK
  8
0
  5
B8
  0
BLOCK
  8
0
  5
B9
  2
GROUP_11
 70
       0
 10
0.0
 20
0.0
 30
0.0
  3
GROUP_11
  0
ARC
  8
0
  6
CONTINUOUS
 62
       7
  5
BA
 10
-61.51746178
 20
-351.42146405
 30
0.0
 40
7.0
 50
90.0
 51
270.0
  0
ARC
  8
0
  6
CONTINUOUS
 62
       7
  5
BB
 10
-46.51746178
 20
-351.42146405
 30
0.0
 40
7.0
 50
270.0
 51
450.0
  0
LINE
  8
0
  6
CONTINUOUS
 62
       7
  5
BC
 10
-61.51746178
 20
-344.42146405
 30
0.0
 11
-46.51746178
 21
-344.42146405
 31
0.0
  0
LINE
  8
0
  6
CONTINUOUS
 62
       7
  5
BD
 10
-61.51746178
 20
-358.42146405
 30
0.0
 11
-46.51746178
 21
-358.42146405
 31
0.0
  0
ENDBLK
  8
0
  5
BE
  0
BLOCK
  8
0
  5
BF
  2
GROUP_12
 70
       0
 10
0.0
 20
0.0
 30
0.0
  3
GROUP_12
  0
ARC
  8
0
  6
CONTINUOUS
 62
       7
  5
C0
 10
-61.51746178
 20
-401.42146405
 30
0.0
 40
7.0
 50
90.0
 51
270.0
  0
ARC
  8
0
  6
CONTINUOUS
 62
       7
  5
C1
 10
-46.51746178
 20
-401.42146405
 30
0.0
 40
7.0
 50
270.0
 51
450.0
  0
LINE
  8
0
  6
CONTINUOUS
 62
       7
  5
C2
 10
-61.51746178
 20
-394.42146405
 30
0.0
 11
-46.51746178
 21
-394.42146405
 31
0.0
  0
LINE
  8
0
  6
CONTINUOUS
 62
       7
  5
C3
 10
-61.51746178
 20
-408.42146405
 30
0.0
 11
-46.51746178
 21
-408.42146405
 31
0.0
  0
ENDBLK
  8
0
  5
C4
  0
BLOCK
  8
0
  5
C5
  2
GROUP_13
 70
       0
 10
0.0
 20
0.0
 30
0.0
  3
GROUP_13
  0
ARC
  8
0
  6
CONTINUOUS
 62
       7
  5
C6
 10
-61.51746178
 20
-451.42146405
 30
0.0
 40
7.0
 50
90.0
 51
270.0
  0
ARC
  8
0
  6
CONTINUOUS
 62
       7
  5
C7
 10
-46.51746178
 20
-451.42146405
 30
0.0
 40
7.0
 50
270.0
 51
450.0
  0
LINE
  8
0
  6
CONTINUOUS
 62
       7
  5
C8
 10
-61.51746178
 20
-444.42146405
 30
0.0
 11
-46.51746178
 21
-444.42146405
 31
0.0
  0
LINE
  8
0
  6
CONTINUOUS
 62
       7
  5
C9
 10
-61.51746178
 20
-458.42146405
 30
0.0
 11
-46.51746178
 21
-458.42146405
 31
0.0
  0
ENDBLK
  8
0
  5
CA
  0
BLOCK
  8
0
  5
CB
  2
GROUP_14
 70
       0
 10
0.0
 20
0.0
 30
0.0
  3
GROUP_14
  0
ARC
  8
0
  6
CONTINUOUS
 62
       7
  5
CC
 10
-61.51746178
 20
-501.42146405
 30
0.0
 40
7.0
 50
90.0
 51
270.0
  0
ARC
  8
0
  6
CONTINUOUS
 62
       7
  5
CD
 10
-46.51746178
 20
-501.42146405
 30
0.0
 40
7.0
 50
270.0
 51
450.0
  0
LINE
  8
0
  6
CONTINUOUS
 62
       7
  5
CE
 10
-61.51746178
 20
-494.42146405
 30
0.0
 11
-46.51746178
 21
-494.42146405
 31
0.0
  0
LINE
  8
0
  6
CONTINUOUS
 62
       7
  5
CF
 10
-61.51746178
 20
-508.42146405
 30
0.0
 11
-46.51746178
 21
-508.42146405
 31
0.0
  0
ENDBLK
  8
0
  5
D0
  0
BLOCK
  8
0
  5
D1
  2
GROUP_15
 70
       0
 10
0.0
 20
0.0
 30
0.0
  3
GROUP_15
  0
ARC
  8
0
  6
CONTINUOUS
 62
       7
  5
D2
 10
-61.51746178
 20
-551.42146405
 30
0.0
 40
7.0
 50
90.0
 51
270.0
  0
ARC
  8
0
  6
CONTINUOUS
 62
       7
  5
D3
 10
-46.51746178
 20
-551.42146405
 30
0.0
 40
7.0
 50
270.0
 51
450.0
  0
LINE
  8
0
  6
CONTINUOUS
 62
       7
  5
D4
 10
-61.51746178
 20
-544.42146405
 30
0.0
 11
-46.51746178
 21
-544.42146405
 31
0.0
  0
LINE
  8
0
  6
CONTINUOUS
 62
       7
  5
D5
 10
-61.51746178
 20
-558.42146405
 30
0.0
 11
-46.51746178
 21
-558.42146405
 31
0.0
  0
ENDBLK
  8
0
  5
D6
  0
BLOCK
  8
0
  5
D7
  2
GROUP_16
 70
       0
 10
0.0
 20
0.0
 30
0.0
  3
GROUP_16
  0
LINE
  8
0
  6
CONTINUOUS
 62
       7
  5
D8
 10
981.25783635
 20
327.19224285
 30
0.0
 11
986.32925549
 21
316.31654941
 31
0.0
  0
ARC
  8
0
  6
CONTINUOUS
 62
       7
  5
D9
 10
1050.83820803
 20
416.26996975
 30
0.0
 40
1.0
 50
340.0
 51
520.0
  0
LINE
  8
0
  6
CONTINUOUS
 62
       7
  5
DA
 10
1051.77790065
 20
415.92794961
 30
0.0
 11
1048.01567907
 21
405.59133078
 31
0.0
  0
LINE
  8
0
  6
CONTINUOUS
 62
       7
  5
DB
 10
1048.01567907
 20
405.59133078
 30
0.0
 11
1047.07598645
 21
405.93335092
 31
0.0
  0
LINE
  8
0
  6
CONTINUOUS
 62
       7
  5
DC
 10
1049.89851541
 20
416.61198989
 30
0.0
 11
1027.42241244
 21
354.85940451
 31
0.0
  0
LINE
  8
0
  6
CONTINUOUS
 62
       7
  5
DD
 10
1028.36210506
 20
354.51738437
 30
0.0
 11
1050.83820803
 21
416.26996975
 31
0.0
  0
ARC
  8
0
  6
CONTINUOUS
 62
       7
  5
DE
 10
1009.56825265
 20
361.35778724
 30
0.0
 40
20.0
 50
295.0
 51
340.0
  0
ARC
  8
0
  6
CONTINUOUS
 62
       7
  5
DF
 10
1009.56825265
 20
361.35778724
 30
0.0
 40
19.0
 50
295.0
 51
340.0
  0
LINE
  8
0
  6
CONTINUOUS
 62
       7
  5
E0
 10
980.04129166
 20
299.04051077
 30
0.0
 11
986.32925549
 21
316.31654941
 31
0.0
  0
LINE
  8
0
  6
CONTINUOUS
 62
       7
  5
E1
 10
729.30427155
 20
209.70436609
 30
0.0
 11
734.37569069
 21
198.82867264
 31
0.0
  0
ARC
  8
0
  6
CONTINUOUS
 62
       7
  5
E2
 10
661.08621075
 20
119.37831126
 30
0.0
 40
1.0
 50
160.0
 51
340.0
  0
LINE
  8
0
  6
CONTINUOUS
 62
       7
  5
E3
 10
662.02590337
 20
119.03629112
 30
0.0
 11
665.78812495
 21
129.37290994
 31
0.0
  0
LINE
  8
0
  6
CONTINUOUS
 62
       7
  5
E4
 10
665.78812495
 20
129.37290994
 30
0.0
 11
664.84843233
 21
129.71493009
 31
0.0
  0
LINE
  8
0
  6
CONTINUOUS
 62
       7
  5
E5
 10
661.08621075
 20
119.37831126
 30
0.0
 11
683.56231372
 21
181.13089664
 31
0.0
  0
LINE
  8
0
  6
CONTINUOUS
 62
       7
  5
E6
 10
682.6226211
 20
181.47291678
 30
0.0
 11
660.14651813
 21
119.7203314
 31
0.0
  0
ARC
  8
0
  6
CONTINUOUS
 62
       7
  5
E7
 10
701.41647351
 20
174.63251391
 30
0.0
 40
20.0
 50
115.0
 51
160.0
  0
ARC
  8
0
  6
CONTINUOUS
 62
       7
  5
E8
 10
701.41647351
 20
174.63251391
 30
0.0
 40
19.0
 50
115.0
 51
160.0
  0
LINE
  8
0
  6
CONTINUOUS
 62
       7
  5
E9
 10
1018.02061788
 20
343.2316315
 30
0.0
 11
981.68045461
 21
326.28593506
 31
0.0
  0
LINE
  8
0
  6
CONTINUOUS
 62
       7
  5
EA
 10
692.96410828
 20
192.75866966
 30
0.0
 11
1017.59799962
 21
344.13793928
 31
0.0
  0
LINE
  8
0
  6
CONTINUOUS
 62
       7
  5
EB
 10
751.65172933
 20
192.54070881
 30
0.0
 11
980.04129166
 21
299.04051077
 31
0.0
  0
LINE
  8
0
  6
CONTINUOUS
 62
       7
  5
EC
 10
729.72688981
 20
208.7980583
 30
0.0
 11
693.38672654
 21
191.85236187
 31
0.0
  0
LINE
  8
0
  6
CONTINUOUS
 62
       7
  5
ED
 10
751.65172933
 20
192.54070881
 30
0.0
 11
734.37569069
 21
198.82867264
 31
0.0
  0
ENDBLK
  8
0
  5
EE
  0
BLOCK
  8
0
  5
EF
  2
GROUP_17
 70
       0
 10
0.0
 20
0.0
 30
0.0
  3
GROUP_17
  0
CIRCLE
  8
LAYER0004
  6
CONTINUOUS
 62
       7
  5
F0
 10
926.38519516
 20
230.07853595
 30
0.0
 40
2.5
  0
CIRCLE
  8
LAYER0004
  6
CONTINUOUS
 62
       7
  5
F1
 10
926.38519516
 20
180.07853595
 30
0.0
 40
2.5
  0
CIRCLE
  8
LAYER0004
  6
CONTINUOUS
 62
       7
  5
F2
 10
926.38519516
 20
160.07853595
 30
0.0
 40
2.5
  0
LINE
  8
LAYER0004
  6
CONTINUOUS
 62
       7
  5
F3
 10
946.38519516
 20
-579.92146405
 30
0.0
 11
906.38519516
 21
-579.92146405
 31
0.0
  0
LINE
  8
LAYER0004
  6
CONTINUOUS
 62
       7
  5
F4
 10
946.38519516
 20
-579.92146405
 30
0.0
 11
946.38519516
 21
157.00964351
 31
0.0
  0
LINE
  8
LAYER0004
  6
CONTINUOUS
 62
       7
  5
F5
 10
906.38519516
 20
-579.92146405
 30
0.0
 11
906.38519516
 21
138.35733719
 31
0.0
  0
LINE
  8
LAYER0004
  6
CENTER
 62
       7
  5
F6
 10
937.40363285
 20
-351.42146405
 30
0.0
 11
957.66724726
 21
-351.42146405
 31
0.0
  0
LINE
  8
LAYER0004
  6
CENTER
 62
       7
  5
F7
 10
937.40363285
 20
-501.42146405
 30
0.0
 11
957.66724726
 21
-501.42146405
 31
0.0
  0
ENDBLK
  8
0
  5
F8
  0
BLOCK
  8
0
  5
F9
  2
GROUP_18
 70
       0
 10
0.0
 20
0.0
 30
0.0
  3
GROUP_18
  0
TEXT
  8
ZUWAKU
 62
       7
  5
FA
 10
1158.21796739
 20
-858.55561829
 30
0.0
 40
35.0
  1
※　タンク高さを高い位置にした場合のみ脚取り付け用で使用
 41
0.8
 72
       5
 11
1942.21796739
 21
-858.55561829
 31
0.0
  0
LINE
  8
ZUWAKU
  6
CONTINUOUS
 62
       7
  5
FB
 10
1154.71796739
 20
-862.05561829
 30
0.0
 11
1945.71796739
 21
-862.05561829
 31
0.0
  0
ENDBLK
  8
0
  5
FC
  0
BLOCK
  8
0
  5
FD
  2
GROUP_19
 70
       0
 10
0.0
 20
0.0
 30
0.0
  3
GROUP_19
  0
LINE
  8
0
  6
CONTINUOUS
 62
       7
  5
FE
 10
-1449.01746178
 20
-1199.38223854
 30
0.0
 11
-1449.01746178
 21
-1159.38223854
 31
0.0
  0
LINE
  8
0
  6
CONTINUOUS
 62
       7
  5
FF
 10
-1449.01746178
 20
-1199.38223854
 30
0.0
 11
150.98253822
 21
-1199.38223854
 31
0.0
  0
LINE
  8
0
  6
CONTINUOUS
 62
       7
  5
100
 10
150.98253822
 20
-1159.38223854
 30
0.0
 11
-1449.01746178
 21
-1159.38223854
 31
0.0
  0
LINE
  8
0
  6
CONTINUOUS
 62
       7
  5
101
 10
150.98253822
 20
-1199.38223854
 30
0.0
 11
150.98253822
 21
-1159.38223854
 31
0.0
  0
LINE
  8
0
  6
CENTER
 62
       7
  5
102
 10
-649.01746178
 20
-1127.99923
 30
0.0
 11
-649.01746178
 21
-1248.79998442
 31
0.0
  0
INSERT
  8
0
  6
CONTINUOUS
  5
103
  2
GROUP_20
 10
0.0
 20
0.0
 30
0.0
  0
INSERT
  8
0
  6
CONTINUOUS
  5
104
  2
GROUP_23
 10
0.0
 20
0.0
 30
0.0
  0
ENDBLK
  8
0
  5
105
  0
BLOCK
  8
0
  5
106
  2
GROUP_20
 70
       0
 10
0.0
 20
0.0
 30
0.0
  3
GROUP_20
  0
LINE
  8
0
  6
CONTINUOUS
 62
       7
  5
107
 10
-1364.01746178
 20
-1173.38223854
 30
0.0
 11
-1184.01746178
 21
-1173.38223854
 31
0.0
  0
ARC
  8
0
  6
CONTINUOUS
 62
       7
  5
108
 10
-1184.01746178
 20
-1177.38223854
 30
0.0
 40
4.0
 50
270.0
 51
450.0
  0
LINE
  8
0
  6
CONTINUOUS
 62
       7
  5
109
 10
-1184.01746178
 20
-1181.38223854
 30
0.0
 11
-1364.01746178
 21
-1181.38223854
 31
0.0
  0
ARC
  8
0
  6
CONTINUOUS
 62
       7
  5
10A
 10
-1364.01746178
 20
-1177.38223854
 30
0.0
 40
4.0
 50
90.0
 51
270.0
  0
INSERT
  8
0
  6
CONTINUOUS
  5
10B
  2
GROUP_21
 10
0.0
 20
0.0
 30
0.0
  0
INSERT
  8
0
  6
CONTINUOUS
  5
10C
  2
GROUP_22
 10
0.0
 20
0.0
 30
0.0
  0
ENDBLK
  8
0
  5
10D
  0
BLOCK
  8
0
  5
10E
  2
GROUP_21
 70
       0
 10
0.0
 20
0.0
 30
0.0
  3
GROUP_21
  0
LINE
  8
0
  6
CENTER
 62
       7
  5
10F
 10
-1194.01746178
 20
-1177.38223854
 30
0.0
 11
-1174.01746178
 21
-1177.38223854
 31
0.0
  0
LINE
  8
0
  6
CENTER
 62
       7
  5
110
 10
-1184.01746178
 20
-1167.38223854
 30
0.0
 11
-1184.01746178
 21
-1187.38223854
 31
0.0
  0
ENDBLK
  8
0
  5
111
  0
BLOCK
  8
0
  5
112
  2
GROUP_22
 70
       0
 10
0.0
 20
0.0
 30
0.0
  3
GROUP_22
  0
LINE
  8
0
  6
CENTER
 62
       7
  5
113
 10
-1374.01746178
 20
-1177.38223854
 30
0.0
 11
-1354.01746178
 21
-1177.38223854
 31
0.0
  0
LINE
  8
0
  6
CENTER
 62
       7
  5
114
 10
-1364.01746178
 20
-1167.38223854
 30
0.0
 11
-1364.01746178
 21
-1187.38223854
 31
0.0
  0
ENDBLK
  8
0
  5
115
  0
BLOCK
  8
0
  5
116
  2
GROUP_23
 70
       0
 10
0.0
 20
0.0
 30
0.0
  3
GROUP_23
  0
LINE
  8
0
  6
CONTINUOUS
 62
       7
  5
117
 10
65.98253822
 20
-1173.38223854
 30
0.0
 11
-114.01746178
 21
-1173.38223854
 31
0.0
  0
ARC
  8
0
  6
CONTINUOUS
 62
       7
  5
118
 10
-114.01746178
 20
-1177.38223854
 30
0.0
 40
4.0
 50
90.0
 51
270.0
  0
LINE
  8
0
  6
CONTINUOUS
 62
       7
  5
119
 10
-114.01746178
 20
-1181.38223854
 30
0.0
 11
65.98253822
 21
-1181.38223854
 31
0.0
  0
ARC
  8
0
  6
CONTINUOUS
 62
       7
  5
11A
 10
65.98253822
 20
-1177.38223854
 30
0.0
 40
4.0
 50
270.0
 51
450.0
  0
INSERT
  8
0
  6
CONTINUOUS
  5
11B
  2
GROUP_24
 10
0.0
 20
0.0
 30
0.0
  0
INSERT
  8
0
  6
CONTINUOUS
  5
11C
  2
GROUP_25
 10
0.0
 20
0.0
 30
0.0
  0
ENDBLK
  8
0
  5
11D
  0
BLOCK
  8
0
  5
11E
  2
GROUP_24
 70
       0
 10
0.0
 20
0.0
 30
0.0
  3
GROUP_24
  0
LINE
  8
0
  6
CENTER
 62
       7
  5
11F
 10
-104.01746178
 20
-1177.38223854
 30
0.0
 11
-124.01746178
 21
-1177.38223854
 31
0.0
  0
LINE
  8
0
  6
CENTER
 62
       7
  5
120
 10
-114.01746178
 20
-1167.38223854
 30
0.0
 11
-114.01746178
 21
-1187.38223854
 31
0.0
  0
ENDBLK
  8
0
  5
121
  0
BLOCK
  8
0
  5
122
  2
GROUP_25
 70
       0
 10
0.0
 20
0.0
 30
0.0
  3
GROUP_25
  0
LINE
  8
0
  6
CENTER
 62
       7
  5
123
 10
75.98253822
 20
-1177.38223854
 30
0.0
 11
55.98253822
 21
-1177.38223854
 31
0.0
  0
LINE
  8
0
  6
CENTER
 62
       7
  5
124
 10
65.98253822
 20
-1167.38223854
 30
0.0
 11
65.98253822
 21
-1187.38223854
 31
0.0
  0
ENDBLK
  8
0
  5
125
  0
BLOCK
  8
0
  5
126
  2
GROUP_26
 70
       0
 10
0.0
 20
0.0
 30
0.0
  3
GROUP_26
  0
LINE
  8
LAYER0016
  6
CONTINUOUS
 62
       7
  5
127
 10
612.49043111
 20
-1082.46266514
 30
0.0
 11
627.57043111
 21
-1082.46266514
 31
0.0
  0
LINE
  8
LAYER0016
  6
CONTINUOUS
 62
       7
  5
128
 10
612.49043111
 20
-1086.46266514
 30
0.0
 11
612.49043111
 21
-1082.46266514
 31
0.0
  0
INSERT
  8
0
  6
CONTINUOUS
  5
129
  2
GROUP_27
 10
0.0
 20
0.0
 30
0.0
  0
ENDBLK
  8
0
  5
12A
  0
BLOCK
  8
0
  5
12B
  2
GROUP_27
 70
       0
 10
0.0
 20
0.0
 30
0.0
  3
GROUP_27
  0
LINE
  8
LAYER0016
  6
CONTINUOUS
 62
       7
  5
12C
 10
497.49043111
 20
-1006.46266514
 30
0.0
 11
627.57043111
 21
-1006.46266514
 31
0.0
  0
LINE
  8
LAYER0016
  6
CONTINUOUS
 62
       7
  5
12D
 10
637.49043111
 20
-1076.54266514
 30
0.0
 11
637.49043111
 21
-1016.38266514
 31
0.0
  0
LINE
  8
LAYER0016
  6
CONTINUOUS
 62
       7
  5
12E
 10
612.49043111
 20
-1086.46266514
 30
0.0
 11
627.57043111
 21
-1086.46266514
 31
0.0
  0
LINE
  8
LAYER0016
  6
CONTINUOUS
 62
       7
  5
12F
 10
497.49043111
 20
-1010.46266514
 30
0.0
 11
497.49043111
 21
-1006.46266514
 31
0.0
  0
LINE
  8
LAYER0016
  6
CONTINUOUS
 62
       7
  5
130
 10
497.49043111
 20
-1010.46266514
 30
0.0
 11
627.57043111
 21
-1010.46266514
 31
0.0
  0
LINE
  8
LAYER0016
  6
CONTINUOUS
 62
       7
  5
131
 10
633.49043111
 20
-1076.54266514
 30
0.0
 11
633.49043111
 21
-1016.38266514
 31
0.0
  0
ARC
  8
LAYER0016
  6
CONTINUOUS
 62
       7
  5
132
 10
627.57043111
 20
-1016.38266514
 30
0.0
 40
5.92
 50
0.0
 51
90.0
  0
ARC
  8
LAYER0016
  6
CONTINUOUS
 62
       7
  5
133
 10
627.57043111
 20
-1076.54266514
 30
0.0
 40
9.92
 50
270.0
 51
360.0
  0
ARC
  8
LAYER0016
  6
CONTINUOUS
 62
       7
  5
134
 10
627.57043111
 20
-1016.38266514
 30
0.0
 40
9.92
 50
0.0
 51
90.0
  0
ENDBLK
  8
0
  5
135
  0
BLOCK
  8
0
  5
136
  2
GROUP_28
 70
       0
 10
0.0
 20
0.0
 30
0.0
  3
GROUP_28
  0
TEXT
  8
LAYER0001
 62
       7
  5
137
 10
505.16653949
 20
-1336.19456137
 30
0.0
 40
52.5
  1
脚　断面形状
 41
0.75
 72
       5
 11
741.41653949
 21
-1336.19456137
 31
0.0
  0
LINE
  8
LAYER0001
  6
CONTINUOUS
 62
       7
  5
138
 10
499.91653949
 20
-1341.44456137
 30
0.0
 11
746.66653949
 21
-1341.44456137
 31
0.0
  0
LINE
  8
LAYER0001
  6
CONTINUOUS
 62
       7
  5
139
 10
746.66653949
 20
-1341.44456137
 30
0.0
 11
746.66653949
 21
-1278.44456137
 31
0.0
  0
LINE
  8
LAYER0001
  6
CONTINUOUS
 62
       7
  5
13A
 10
499.91653949
 20
-1278.44456137
 30
0.0
 11
746.66653949
 21
-1278.44456137
 31
0.0
  0
LINE
  8
LAYER0001
  6
CONTINUOUS
 62
       7
  5
13B
 10
499.91653949
 20
-1341.44456137
 30
0.0
 11
499.91653949
 21
-1278.44456137
 31
0.0
  0
ENDBLK
  8
0
  5
13C
  0
BLOCK
  8
0
  5
13D
  2
GROUP_29
 70
       0
 10
0.0
 20
0.0
 30
0.0
  3
GROUP_29
  0
LINE
  8
LAYER0002
  6
CONTINUOUS
 62
       7
  5
13E
 10
981.68045461
 20
326.28593506
 30
0.0
 11
998.78248255
 21
334.26074166
 31
0.0
  0
LINE
  8
LAYER0002
  6
CONTINUOUS
 62
       7
  5
13F
 10
982.18759652
 20
325.19836572
 30
0.0
 11
999.10836291
 21
333.08864867
 31
0.0
  0
ARC
  8
LAYER0002
  6
CONTINUOUS
 62
       7
  5
140
 10
999.97849223
 20
331.69589063
 30
0.0
 40
2.83
 50
25.0
 51
115.0
  0
ARC
  8
LAYER0002
  6
CONTINUOUS
 62
       7
  5
141
 10
999.88175433
 20
331.43010542
 30
0.0
 40
1.83
 50
25.0
 51
115.0
  0
LINE
  8
LAYER0002
  6
CONTINUOUS
 62
       7
  5
142
 10
1015.11046034
 20
308.78107267
 30
0.0
 11
1018.83249149
 21
300.79915112
 31
0.0
  0
ARC
  8
LAYER0002
  6
CONTINUOUS
 62
       7
  5
143
 10
1017.74492214
 20
300.29200921
 30
0.0
 40
1.2
 50
205.0
 51
385.0
  0
LINE
  8
LAYER0002
  6
CONTINUOUS
 62
       7
  5
144
 10
1015.11345078
 20
308.77465965
 30
0.0
 11
1014.02588144
 21
308.26751773
 31
0.0
  0
LINE
  8
LAYER0002
  6
CONTINUOUS
 62
       7
  5
145
 10
1002.54334327
 20
332.89190031
 30
0.0
 11
1017.74492214
 21
300.29200921
 31
0.0
  0
LINE
  8
LAYER0002
  6
CONTINUOUS
 62
       7
  5
146
 10
1001.54029758
 20
332.20349684
 30
0.0
 11
1016.6573528
 21
299.78486729
 31
0.0
  0
INSERT
  8
0
  6
CONTINUOUS
  5
147
  2
GROUP_30
 10
0.0
 20
0.0
 30
0.0
  0
ENDBLK
  8
0
  5
148
  0
BLOCK
  8
0
  5
149
  2
GROUP_30
 70
       0
 10
0.0
 20
0.0
 30
0.0
  3
GROUP_30
  0
LINE
  8
LAYER0002
  6
CONTINUOUS
 62
       7
  5
14A
 10
1009.24943778
 20
325.84585912
 30
0.0
 11
1012.42990044
 21
327.32893322
 31
0.0
  0
LINE
  8
LAYER0002
  6
CONTINUOUS
 62
       7
  5
14B
 10
1010.46943162
 20
323.2295739
 30
0.0
 11
1013.64989428
 21
324.71264799
 31
0.0
  0
LINE
  8
LAYER0002
  6
CONTINUOUS
 62
       7
  5
14C
 10
1013.48466585
 20
326.22818956
 30
0.0
 11
1017.12478202
 21
318.42193523
 31
0.0
  0
LINE
  8
LAYER0002
  6
CONTINUOUS
 62
       7
  5
14D
 10
1014.10954779
 20
315.42331957
 30
0.0
 11
1017.29001045
 21
316.90639367
 31
0.0
  0
LINE
  8
LAYER0002
  6
CONTINUOUS
 62
       7
  5
14E
 10
1012.88955396
 20
318.0396048
 30
0.0
 11
1016.07001662
 21
319.52267889
 31
0.0
  0
ARC
  8
LAYER0002
  6
CONTINUOUS
 62
       7
  5
14F
 10
1011.33854247
 20
325.22743579
 30
0.0
 40
2.36798515
 50
347.44393356
 51
422.55606644
  0
ARC
  8
LAYER0002
  6
CONTINUOUS
 62
       7
  5
150
 10
1014.97865864
 20
317.42118146
 30
0.0
 40
2.36798515
 50
347.44393356
 51
422.55606644
  0
ARC
  8
LAYER0002
  6
CONTINUOUS
 62
       7
  5
151
 10
1007.51217116
 20
318.69133536
 30
0.0
 40
8.59813066
 50
5.54853244
 51
44.45146756
  0
LINE
  8
LAYER0002
  6
CONTINUOUS
 62
       7
  5
152
 10
1012.8980025
 20
314.47218445
 30
0.0
 11
1014.25746418
 21
315.10611185
 31
0.0
  0
LINE
  8
LAYER0002
  6
CONTINUOUS
 62
       7
  5
153
 10
1007.74205971
 20
325.52913945
 30
0.0
 11
1009.10152139
 21
326.16306685
 31
0.0
  0
LINE
  8
LAYER0002
  6
CONTINUOUS
 62
       7
  5
154
 10
1009.10152139
 20
326.16306685
 30
0.0
 11
1014.25746418
 21
315.10611185
 31
0.0
  0
LINE
  8
LAYER0002
  6
CONTINUOUS
 62
       7
  5
155
 10
1011.67949279
 20
320.63458935
 30
0.0
 11
1010.15017077
 21
320.36492861
 31
0.0
  0
LINE
  8
LAYER0002
  6
CONTINUOUS
 62
       7
  5
156
 10
1011.84935312
 20
320.27032269
 30
0.0
 11
1010.32003111
 21
320.00066195
 31
0.0
  0
LINE
  8
LAYER0002
  6
CONTINUOUS
 62
       7
  5
157
 10
1011.51130278
 20
313.66004907
 30
0.0
 11
1012.96139524
 21
314.33623828
 31
0.0
  0
LINE
  8
LAYER0002
  6
CONTINUOUS
 62
       7
  5
158
 10
1006.22857451
 20
324.9888964
 30
0.0
 11
1011.51130278
 21
313.66004907
 31
0.0
  0
LINE
  8
LAYER0002
  6
CONTINUOUS
 62
       7
  5
159
 10
1006.22857451
 20
324.9888964
 30
0.0
 11
1007.67866697
 21
325.66508562
 31
0.0
  0
LINE
  8
LAYER0002
  6
CONTINUOUS
 62
       7
  5
15A
 10
1007.67866697
 20
325.66508562
 30
0.0
 11
1012.96139524
 21
314.33623828
 31
0.0
  0
LINE
  8
LAYER0002
  6
CONTINUOUS
 62
       7
  5
15B
 10
1007.60208386
 20
322.0433961
 30
0.0
 11
993.19179005
 21
315.32376573
 31
0.0
  0
LINE
  8
LAYER0002
  6
CONTINUOUS
 62
       7
  5
15C
 10
993.19179005
 20
315.32376573
 30
0.0
 11
995.72749962
 21
309.88591901
 31
0.0
  0
LINE
  8
LAYER0002
  6
CONTINUOUS
 62
       7
  5
15D
 10
1010.13779343
 20
316.60554937
 30
0.0
 11
995.72749962
 21
309.88591901
 31
0.0
  0
LINE
  8
LAYER0002
  6
CONTINUOUS
 62
       7
  5
15E
 10
992.70810052
 20
313.99483969
 30
0.0
 11
994.39857357
 21
310.36960854
 31
0.0
  0
LINE
  8
LAYER0002
  6
CONTINUOUS
 62
       7
  5
15F
 10
993.19179005
 20
315.32376573
 30
0.0
 11
992.70810052
 21
313.99483969
 31
0.0
  0
LINE
  8
LAYER0002
  6
CONTINUOUS
 62
       7
  5
160
 10
995.72749962
 20
309.88591901
 30
0.0
 11
994.39857357
 21
310.36960854
 31
0.0
  0
ENDBLK
  8
0
  5
161
  0
BLOCK
  8
0
  5
162
  2
GROUP_31
 70
       0
 10
0.0
 20
0.0
 30
0.0
  3
GROUP_31
  0
LINE
  8
LAYER0002
  6
CONTINUOUS
 62
       7
  5
163
 10
729.72688981
 20
208.7980583
 30
0.0
 11
721.68793974
 21
205.04943432
 31
0.0
  0
LINE
  8
LAYER0002
  6
CONTINUOUS
 62
       7
  5
164
 10
730.23403173
 20
207.71048896
 30
0.0
 11
722.37634321
 21
204.04638863
 31
0.0
  0
ARC
  8
LAYER0002
  6
CONTINUOUS
 62
       7
  5
165
 10
722.88394942
 20
202.48458328
 30
0.0
 40
2.83
 50
115.0
 51
205.0
  0
ARC
  8
LAYER0002
  6
CONTINUOUS
 62
       7
  5
166
 10
723.14973463
 20
202.38784538
 30
0.0
 40
1.83
 50
115.0
 51
205.0
  0
LINE
  8
LAYER0002
  6
CONTINUOUS
 62
       7
  5
167
 10
730.71107677
 20
176.16346213
 30
0.0
 11
734.43310792
 21
168.18154059
 31
0.0
  0
ARC
  8
LAYER0002
  6
CONTINUOUS
 62
       7
  5
168
 10
735.52067726
 20
168.6886825
 30
0.0
 40
1.2
 50
205.0
 51
385.0
  0
LINE
  8
LAYER0002
  6
CONTINUOUS
 62
       7
  5
169
 10
730.71406721
 20
176.15704911
 30
0.0
 11
731.80163656
 21
176.66419103
 31
0.0
  0
LINE
  8
LAYER0002
  6
CONTINUOUS
 62
       7
  5
16A
 10
720.31909839
 20
201.2885736
 30
0.0
 11
735.52067726
 21
168.6886825
 31
0.0
  0
LINE
  8
LAYER0002
  6
CONTINUOUS
 62
       7
  5
16B
 10
721.49119138
 20
201.61445396
 30
0.0
 11
736.6082466
 21
169.19582442
 31
0.0
  0
INSERT
  8
0
  6
CONTINUOUS
  5
16C
  2
GROUP_32
 10
0.0
 20
0.0
 30
0.0
  0
ENDBLK
  8
0
  5
16D
  0
BLOCK
  8
0
  5
16E
  2
GROUP_32
 70
       0
 10
0.0
 20
0.0
 30
0.0
  3
GROUP_32
  0
LINE
  8
LAYER0002
  6
CONTINUOUS
 62
       7
  5
16F
 10
721.40608462
 20
191.62229919
 30
0.0
 11
718.22562196
 21
190.1392251
 31
0.0
  0
LINE
  8
LAYER0002
  6
CONTINUOUS
 62
       7
  5
170
 10
722.62607845
 20
189.00601397
 30
0.0
 11
719.44561579
 21
187.52293987
 31
0.0
  0
LINE
  8
LAYER0002
  6
CONTINUOUS
 62
       7
  5
171
 10
718.39085039
 20
188.62368353
 30
0.0
 11
722.03096656
 21
180.81742921
 31
0.0
  0
LINE
  8
LAYER0002
  6
CONTINUOUS
 62
       7
  5
172
 10
726.26619463
 20
181.19975964
 30
0.0
 11
723.08573197
 21
179.71668555
 31
0.0
  0
LINE
  8
LAYER0002
  6
CONTINUOUS
 62
       7
  5
173
 10
725.04620079
 20
183.81604487
 30
0.0
 11
721.86573813
 21
182.33297077
 31
0.0
  0
ARC
  8
LAYER0002
  6
CONTINUOUS
 62
       7
  5
174
 10
720.53697377
 20
189.6244373
 30
0.0
 40
2.36798515
 50
167.44393356
 51
242.55606644
  0
ARC
  8
LAYER0002
  6
CONTINUOUS
 62
       7
  5
175
 10
724.17708994
 20
181.81818297
 30
0.0
 40
2.36798515
 50
167.44393356
 51
242.55606644
  0
ARC
  8
LAYER0002
  6
CONTINUOUS
 62
       7
  5
176
 10
728.00346125
 20
188.35428341
 30
0.0
 40
8.59813066
 50
185.54853244
 51
224.45146756
  0
LINE
  8
LAYER0002
  6
CONTINUOUS
 62
       7
  5
177
 10
727.7735727
 20
181.51647931
 30
0.0
 11
726.41411102
 21
180.88255192
 31
0.0
  0
LINE
  8
LAYER0002
  6
CONTINUOUS
 62
       7
  5
178
 10
722.61762991
 20
192.57343431
 30
0.0
 11
721.25816823
 21
191.93950692
 31
0.0
  0
LINE
  8
LAYER0002
  6
CONTINUOUS
 62
       7
  5
179
 10
721.25816823
 20
191.93950692
 30
0.0
 11
726.41411102
 21
180.88255192
 31
0.0
  0
LINE
  8
LAYER0002
  6
CONTINUOUS
 62
       7
  5
17A
 10
723.83613962
 20
186.41102942
 30
0.0
 11
725.02574097
 21
187.40922347
 31
0.0
  0
LINE
  8
LAYER0002
  6
CONTINUOUS
 62
       7
  5
17B
 10
724.00599996
 20
186.04676276
 30
0.0
 11
725.1956013
 21
187.04495681
 31
0.0
  0
LINE
  8
LAYER0002
  6
CONTINUOUS
 62
       7
  5
17C
 10
729.2870579
 20
182.05672236
 30
0.0
 11
727.83696544
 21
181.38053314
 31
0.0
  0
LINE
  8
LAYER0002
  6
CONTINUOUS
 62
       7
  5
17D
 10
724.00432963
 20
193.3855697
 30
0.0
 11
729.2870579
 21
182.05672236
 31
0.0
  0
LINE
  8
LAYER0002
  6
CONTINUOUS
 62
       7
  5
17E
 10
724.00432963
 20
193.3855697
 30
0.0
 11
722.55423717
 21
192.70938048
 31
0.0
  0
LINE
  8
LAYER0002
  6
CONTINUOUS
 62
       7
  5
17F
 10
722.55423717
 20
192.70938048
 30
0.0
 11
727.83696544
 21
181.38053314
 31
0.0
  0
LINE
  8
LAYER0002
  6
CONTINUOUS
 62
       7
  5
180
 10
725.37783898
 20
190.44006939
 30
0.0
 11
739.78813279
 21
197.15969975
 31
0.0
  0
LINE
  8
LAYER0002
  6
CONTINUOUS
 62
       7
  5
181
 10
739.78813279
 20
197.15969975
 30
0.0
 11
742.32384236
 21
191.72185303
 31
0.0
  0
LINE
  8
LAYER0002
  6
CONTINUOUS
 62
       7
  5
182
 10
727.91354855
 20
185.00222267
 30
0.0
 11
742.32384236
 21
191.72185303
 31
0.0
  0
LINE
  8
LAYER0002
  6
CONTINUOUS
 62
       7
  5
183
 10
741.11705884
 20
196.67601023
 30
0.0
 11
742.80753189
 21
193.05077908
 31
0.0
  0
LINE
  8
LAYER0002
  6
CONTINUOUS
 62
       7
  5
184
 10
739.78813279
 20
197.15969975
 30
0.0
 11
741.11705884
 21
196.67601023
 31
0.0
  0
LINE
  8
LAYER0002
  6
CONTINUOUS
 62
       7
  5
185
 10
742.32384236
 20
191.72185303
 30
0.0
 11
742.80753189
 21
193.05077908
 31
0.0
  0
ENDBLK
  8
0
  5
186
  0
BLOCK
  8
0
  5
187
  2
GROUP_33
 70
       0
 10
0.0
 20
0.0
 30
0.0
  3
GROUP_33
  0
LINE
  8
0
  6
CONTINUOUS
 62
       7
  5
188
 10
200.98253822
 20
1240.13907742
 30
0.0
 11
200.98253822
 21
872.38708015
 31
0.0
  0
LINE
  8
0
  6
CONTINUOUS
 62
       7
  5
189
 10
150.98253822
 20
860.38708015
 30
0.0
 11
200.98253822
 21
872.38708015
 31
0.0
  0
LINE
  8
0
  6
CONTINUOUS
 62
       7
  5
18A
 10
200.98253822
 20
1240.13907742
 30
0.0
 11
150.98253822
 21
1252.13907742
 31
0.0
  0
LINE
  8
0
  6
CONTINUOUS
 62
       7
  5
18B
 10
-1499.01746178
 20
1240.13907742
 30
0.0
 11
-1499.01746178
 21
872.38708015
 31
0.0
  0
LINE
  8
0
  6
CONTINUOUS
 62
       7
  5
18C
 10
-1449.01746178
 20
860.38708015
 30
0.0
 11
-1499.01746178
 21
872.38708015
 31
0.0
  0
LINE
  8
0
  6
CONTINUOUS
 62
       7
  5
18D
 10
-1499.01746178
 20
1240.13907742
 30
0.0
 11
-1449.01746178
 21
1252.13907742
 31
0.0
  0
LINE
  8
0
  6
CONTINUOUS
 62
       7
  5
18E
 10
-1499.01746178
 20
885.75687813
 30
0.0
 11
200.98253822
 21
885.75687813
 31
0.0
  0
LINE
  8
0
  6
CONTINUOUS
 62
       7
  5
18F
 10
150.98253822
 20
860.38708015
 30
0.0
 11
-1449.01746178
 21
860.38708015
 31
0.0
  0
LINE
  8
0
  6
CONTINUOUS
 62
       7
  5
190
 10
-1499.01746178
 20
1225.03156358
 30
0.0
 11
200.98253822
 21
1225.03156358
 31
0.0
  0
LINE
  8
0
  6
CONTINUOUS
 62
       7
  5
191
 10
150.98253822
 20
1252.13907742
 30
0.0
 11
-1449.01746178
 21
1252.13907742
 31
0.0
  0
ENDBLK
  8
0
  5
192
  0
BLOCK
  8
0
  5
193
  2
GROUP_34
 70
       0
 10
0.0
 20
0.0
 30
0.0
  3
GROUP_34
  0
TEXT
  8
LAYER0001
 62
       7
  5
194
 10
-806.51746178
 20
-1336.19456137
 30
0.0
 40
52.5
  1
脚ピッチ調整範囲
 41
0.75
 72
       5
 11
-491.51746178
 21
-1336.19456137
 31
0.0
  0
LINE
  8
LAYER0001
  6
CONTINUOUS
 62
       7
  5
195
 10
-811.76746178
 20
-1341.44456137
 30
0.0
 11
-486.26746178
 21
-1341.44456137
 31
0.0
  0
LINE
  8
LAYER0001
  6
CONTINUOUS
 62
       7
  5
196
 10
-486.26746178
 20
-1341.44456137
 30
0.0
 11
-486.26746178
 21
-1278.44456137
 31
0.0
  0
LINE
  8
LAYER0001
  6
CONTINUOUS
 62
       7
  5
197
 10
-811.76746178
 20
-1278.44456137
 30
0.0
 11
-486.26746178
 21
-1278.44456137
 31
0.0
  0
LINE
  8
LAYER0001
  6
CONTINUOUS
 62
       7
  5
198
 10
-811.76746178
 20
-1341.44456137
 30
0.0
 11
-811.76746178
 21
-1278.44456137
 31
0.0
  0
ENDBLK
  8
0
  5
199
  0
BLOCK
  8
0
  5
19A
  2
GROUP_35
 70
       0
 10
0.0
 20
0.0
 30
0.0
  3
GROUP_35
  0
LINE
  8
LAYER0001
  6
CONTINUOUS
 62
       7
  5
19B
 10
-492.97131148
 20
146.06557377
 30
0.0
 11
-398.77926097
 21
4.77749801
 31
0.0
  0
CIRCLE
  8
LAYER0001
  6
CONTINUOUS
 62
       7
  5
19C
 10
-379.3647541
 20
-24.3442623
 30
0.0
 40
35.0
  0
TEXT
  8
LAYER0001
 62
       7
  5
19D
 10
-399.3647541
 20
-49.3442623
 30
0.0
 40
50.0
  1
1
 41
0.8
 72
       5
 11
-359.3647541
 21
-49.3442623
 31
0.0
  0
ENDBLK
  8
0
  5
19E
  0
BLOCK
  8
0
  5
19F
  2
GROUP_36
 70
       0
 10
0.0
 20
0.0
 30
0.0
  3
GROUP_36
  0
LINE
  8
LAYER0001
  6
CONTINUOUS
 62
       7
  5
1A0
 10
1016.07001662
 20
319.52267889
 30
0.0
 11
1127.88401227
 21
256.55861891
 31
0.0
  0
CIRCLE
  8
LAYER0001
  6
CONTINUOUS
 62
       7
  5
1A1
 10
1158.38114754
 20
239.3852459
 30
0.0
 40
35.0
  0
TEXT
  8
LAYER0001
 62
       7
  5
1A2
 10
1138.38114754
 20
214.3852459
 30
0.0
 40
50.0
  1
3
 41
0.8
 72
       5
 11
1178.38114754
 21
214.3852459
 31
0.0
  0
ENDBLK
  8
0
  5
1A3
  0
BLOCK
  8
0
  5
1A4
  2
GROUP_37
 70
       0
 10
0.0
 20
0.0
 30
0.0
  3
GROUP_37
  0
LINE
  8
LAYER0001
  6
CONTINUOUS
 62
       7
  5
1A5
 10
-69.69861691
 20
-0.71600771
 30
0.0
 11
-186.95807629
 21
-117.97546709
 31
0.0
  0
CIRCLE
  8
LAYER0001
  6
CONTINUOUS
 62
       7
  5
1A6
 10
-211.70681363
 20
-142.72420444
 30
0.0
 40
35.0
  0
TEXT
  8
LAYER0001
 62
       7
  5
1A7
 10
-231.70681363
 20
-167.72420444
 30
0.0
 40
50.0
  1
2
 41
0.8
 72
       5
 11
-191.70681363
 21
-167.72420444
 31
0.0
  0
ENDBLK
  8
0
  5
1A8
  0
ENDSEC
  0
SECTION
  2
ENTITIES
  0
LINE
  8
LAYER0001
  6
CONTINUOUS
 62
       7
  5
1A9
 10
-1470.03966007
 20
620.77868852
 30
0.0
 11
172.0047365
 21
620.77868852
 31
0.0
  0
INSERT
  8
LAYER0001
  6
CONTINUOUS
 62
       7
  5
1AA
  2
_OPEN30
 10
-1499.01746178
 20
620.77868852
 30
0.0
 41
30.00002788
 42
29.99989274
 50
180.0
  0
INSERT
  8
LAYER0001
  6
CONTINUOUS
 62
       7
  5
1AB
  2
_OPEN30
 10
200.98253822
 20
620.77868852
 30
0.0
 41
30.00002788
 42
29.99989274
 50
360.0
  0
LINE
  8
LAYER0001
  6
CONTINUOUS
 62
       7
  5
1AC
 10
-1155.03966006
 20
-1051.07779744
 30
0.0
 11
-142.9952635
 21
-1051.07779744
 31
0.0
  0
INSERT
  8
LAYER0001
  6
CONTINUOUS
 62
       7
  5
1AD
  2
_OPEN30
 10
-1184.01746178
 20
-1051.07779744
 30
0.0
 41
30.00002788
 42
29.99989274
 50
180.0
  0
INSERT
  8
LAYER0001
  6
CONTINUOUS
 62
       7
  5
1AE
  2
_OPEN30
 10
-114.01746178
 20
-1051.07779744
 30
0.0
 41
30.00002788
 42
29.99989274
 50
360.0
  0
LINE
  8
LAYER0001
  6
CONTINUOUS
 62
       7
  5
1AF
 10
-1335.03966006
 20
-894.19484168
 30
0.0
 11
37.0047365
 21
-894.19484168
 31
0.0
  0
INSERT
  8
LAYER0001
  6
CONTINUOUS
 62
       7
  5
1B0
  2
_OPEN30
 10
-1364.01746178
 20
-894.19484168
 30
0.0
 41
30.00002788
 42
29.99989274
 50
180.0
  0
INSERT
  8
LAYER0001
  6
CONTINUOUS
 62
       7
  5
1B1
  2
_OPEN30
 10
65.98253822
 20
-894.19484168
 30
0.0
 41
30.00002788
 42
29.99989274
 50
360.0
  0
LINE
  8
LAYER0001
  6
CONTINUOUS
 62
       7
  5
1B2
 10
499.20153226
 20
532.74224333
 30
0.0
 11
882.34451172
 21
711.40474882
 31
0.0
  0
INSERT
  8
LAYER0001
  6
CONTINUOUS
 62
       7
  5
1B3
  2
_OPEN30
 10
472.93872491
 20
520.49569514
 30
0.0
 41
30.00002788
 42
29.99989274
 50
205.0
  0
INSERT
  8
LAYER0001
  6
CONTINUOUS
 62
       7
  5
1B4
  2
_OPEN30
 10
908.60731907
 20
723.65129701
 30
0.0
 41
30.00002788
 42
29.99989274
 50
25.0
  0
ARC
  8
LAYER0001
  6
CONTINUOUS
 62
       7
  5
1B5
 10
1024.73069418
 20
347.46396938
 30
0.0
 40
649.26235876
 50
182.5580683
 51
202.4419317
  0
INSERT
  8
LAYER0001
  6
CONTINUOUS
 62
       7
  5
1B6
  2
_OPEN30
 10
375.46833542
 20
347.46396938
 30
0.0
 41
30.00002788
 42
29.99989274
 50
91.32371332
  0
INSERT
  8
LAYER0001
  6
CONTINUOUS
 62
       7
  5
1B7
  2
_OPEN30
 10
436.29916261
 20
73.07383991
 30
0.0
 41
30.00002788
 42
29.99989274
 50
293.67628668
  0
LINE
  8
LAYER0001
  6
CONTINUOUS
 62
       7
  5
1B8
 10
689.06401247
 20
482.12877681
 30
0.0
 11
1022.86040631
 21
482.12877681
 31
0.0
  0
INSERT
  8
LAYER0001
  6
CONTINUOUS
 62
       7
  5
1B9
  2
_OPEN30
 10
660.08621075
 20
482.12877681
 30
0.0
 41
30.00002788
 42
29.99989274
 50
180.0
  0
INSERT
  8
LAYER0001
  6
CONTINUOUS
 62
       7
  5
1BA
  2
_OPEN30
 10
1051.83820803
 20
482.12877681
 30
0.0
 41
30.00002788
 42
29.99989274
 50
360.0
  0
LINE
  8
LAYER0001
  6
CONTINUOUS
 62
       7
  5
1BB
 10
1227.35655738
 20
-550.94366233
 30
0.0
 11
1227.35655738
 21
388.29216803
 31
0.0
  0
INSERT
  8
LAYER0001
  6
CONTINUOUS
 62
       7
  5
1BC
  2
_OPEN30
 10
1227.35655738
 20
-579.92146405
 30
0.0
 41
30.00002788
 42
29.99989274
 50
270.0
  0
INSERT
  8
LAYER0001
  6
CONTINUOUS
 62
       7
  5
1BD
  2
_OPEN30
 10
1227.35655738
 20
417.26996975
 30
0.0
 41
30.00002788
 42
29.99989274
 50
90.0
  0
LINE
  8
LAYER0001
  6
CONTINUOUS
 62
       7
  5
1BE
 10
250.85221794
 20
-522.44366233
 30
0.0
 11
250.85221794
 21
-330.39926577
 31
0.0
  0
INSERT
  8
LAYER0001
  6
CONTINUOUS
 62
       7
  5
1BF
  2
_OPEN30
 10
250.85221794
 20
-551.42146405
 30
0.0
 41
30.00002788
 42
29.99989274
 50
270.0
  0
INSERT
  8
LAYER0001
  6
CONTINUOUS
 62
       7
  5
1C0
  2
_OPEN30
 10
250.85221794
 20
-301.42146405
 30
0.0
 41
30.00002788
 42
29.99989274
 50
90.0
  0
LINE
  8
LAYER0001
  6
CONTINUOUS
 62
       7
  5
1C1
 10
-1499.01746178
 20
382.26996975
 30
0.0
 11
-1499.01746178
 21
630.77868852
 31
0.0
  0
LINE
  8
LAYER0001
  6
CONTINUOUS
 62
       7
  5
1C2
 10
200.98253822
 20
382.26996975
 30
0.0
 11
200.98253822
 21
630.77868852
 31
0.0
  0
LINE
  8
LAYER0001
  6
CONTINUOUS
 62
       7
  5
1C3
 10
-1184.01746178
 20
-1152.38223854
 30
0.0
 11
-1184.01746178
 21
-1036.07779744
 31
0.0
  0
LINE
  8
LAYER0001
  6
CONTINUOUS
 62
       7
  5
1C4
 10
-114.01746178
 20
-1152.38223854
 30
0.0
 11
-114.01746178
 21
-1036.07779744
 31
0.0
  0
LINE
  8
LAYER0001
  6
CONTINUOUS
 62
       7
  5
1C5
 10
-1364.01746178
 20
-1152.38223854
 30
0.0
 11
-1364.01746178
 21
-879.19484168
 31
0.0
  0
LINE
  8
LAYER0001
  6
CONTINUOUS
 62
       7
  5
1C6
 10
65.98253822
 20
-1152.38223854
 30
0.0
 11
65.98253822
 21
-879.19484168
 31
0.0
  0
LINE
  8
LAYER0001
  6
CONTINUOUS
 62
       7
  5
1C7
 10
653.84062904
 20
132.5503098
 30
0.0
 11
468.71254229
 21
529.55877301
 31
0.0
  0
LINE
  8
LAYER0001
  6
CONTINUOUS
 62
       7
  5
1C8
 10
1045.40524189
 20
430.28720482
 30
0.0
 11
904.38113645
 21
732.71437488
 31
0.0
  0
LINE
  8
LAYER0001
  6
CONTINUOUS
 62
       7
  5
1C9
 10
360.46833542
 20
347.46396938
 30
0.0
 11
1006.08365002
 21
347.46396938
 31
0.0
  0
LINE
  8
LAYER0001
  6
CONTINUOUS
 62
       7
  5
1CA
 10
422.7045458
 20
66.73456598
 30
0.0
 11
679.36949147
 21
186.41939573
 31
0.0
  0
LINE
  8
LAYER0001
  6
CONTINUOUS
 62
       7
  5
1CB
 10
660.08621075
 20
119.37831126
 30
0.0
 11
660.08621075
 21
497.12877681
 31
0.0
  0
LINE
  8
LAYER0001
  6
CONTINUOUS
 62
       7
  5
1CC
 10
1051.83820803
 20
416.26996975
 30
0.0
 11
1051.83820803
 21
497.12877681
 31
0.0
  0
LINE
  8
LAYER0001
  6
CONTINUOUS
 62
       7
  5
1CD
 10
961.38519516
 20
-579.92146405
 30
0.0
 11
1237.35655738
 21
-579.92146405
 31
0.0
  0
LINE
  8
LAYER0001
  6
CONTINUOUS
 62
       7
  5
1CE
 10
1065.83820803
 20
417.26996975
 30
0.0
 11
1237.35655738
 21
417.26996975
 31
0.0
  0
LINE
  8
LAYER0001
  6
CONTINUOUS
 62
       7
  5
1CF
 10
670.3064136
 20
182.19321311
 30
0.0
 11
519.45778261
 21
111.85134126
 31
0.0
  0
LINE
  8
LAYER0001
  6
CONTINUOUS
 62
       7
  5
1D0
 10
652.44575114
 20
114.24582085
 30
0.0
 11
542.29311877
 21
62.88080482
 31
0.0
  0
LINE
  8
LAYER0001
  6
CONTINUOUS
 62
       7
  5
1D1
 10
528.52086048
 20
116.07752387
 30
0.0
 11
551.35619664
 21
67.10698743
 31
0.0
  0
LINE
  8
LAYER0001
  6
CONTINUOUS
 62
       7
  5
1D2
 10
946.38519516
 20
-693.81147541
 30
0.0
 11
1051.83820803
 21
-693.81147541
 31
0.0
  0
LINE
  8
LAYER0001
  6
CONTINUOUS
 62
       7
  5
1D3
 10
946.38519516
 20
-589.92146405
 30
0.0
 11
946.38519516
 21
-703.81147541
 31
0.0
  0
LINE
  8
LAYER0001
  6
CONTINUOUS
 62
       7
  5
1D4
 10
1051.83820803
 20
406.26996975
 30
0.0
 11
1051.83820803
 21
-703.81147541
 31
0.0
  0
LINE
  8
LAYER0001
  6
CONTINUOUS
 62
       7
  5
1D5
 10
-23.97557436
 20
-551.42146405
 30
0.0
 11
260.85221794
 21
-551.42146405
 31
0.0
  0
LINE
  8
LAYER0001
  6
CONTINUOUS
 62
       7
  5
1D6
 10
-2.51746178
 20
-579.92146405
 30
0.0
 11
260.85221794
 21
-579.92146405
 31
0.0
  0
LINE
  8
LAYER0001
  6
CONTINUOUS
 62
       7
  5
1D7
 10
250.85221794
 20
-579.92146405
 30
0.0
 11
250.85221794
 21
-551.42146405
 31
0.0
  0
LINE
  8
LAYER0001
  6
CONTINUOUS
 62
       7
  5
1D8
 10
-23.97557436
 20
-301.42146405
 30
0.0
 11
260.85221794
 21
-301.42146405
 31
0.0
  0
LINE
  8
LAYER0001
  6
CONTINUOUS
 62
       7
  5
1D9
 10
-23.97557436
 20
-551.42146405
 30
0.0
 11
115.04701061
 21
-551.42146405
 31
0.0
  0
LINE
  8
LAYER0001
  6
CONTINUOUS
 62
       7
  5
1DA
 10
-23.97557436
 20
-501.42146405
 30
0.0
 11
115.04701061
 21
-501.42146405
 31
0.0
  0
LINE
  8
LAYER0001
  6
CONTINUOUS
 62
       7
  5
1DB
 10
105.04701061
 20
-551.42146405
 30
0.0
 11
105.04701061
 21
-501.42146405
 31
0.0
  0
LINE
  8
LAYER0001
  6
CONTINUOUS
 62
       7
  5
1DC
 10
592.34078591
 20
-20.78474788
 30
0.0
 11
563.60274484
 21
40.84418009
 31
0.0
  0
INSERT
  8
LAYER0001
  6
CONTINUOUS
 62
       7
  5
1DD
  2
_OPEN30
 10
551.35619664
 20
67.10698743
 30
0.0
 41
30.00002788
 42
29.99989274
 50
115.0
  0
LINE
  8
LAYER0001
  6
CONTINUOUS
 62
       7
  5
1DE
 10
507.38994739
 20
161.39291323
 30
0.0
 11
516.27431229
 21
142.34033122
 31
0.0
  0
INSERT
  8
LAYER0001
  6
CONTINUOUS
 62
       7
  5
1DF
  2
_OPEN30
 10
528.52086048
 20
116.07752387
 30
0.0
 41
30.00002788
 42
29.99989274
 50
295.0
  0
LINE
  8
LAYER0001
  6
CONTINUOUS
 62
       7
  5
1E0
 10
1220.81600803
 20
-693.81147541
 30
0.0
 11
1080.81600975
 21
-693.81147541
 31
0.0
  0
INSERT
  8
LAYER0001
  6
CONTINUOUS
 62
       7
  5
1E1
  2
_OPEN30
 10
1051.83820803
 20
-693.81147541
 30
0.0
 41
30.00002788
 42
29.99989274
 50
180.0
  0
LINE
  8
LAYER0001
  6
CONTINUOUS
 62
       7
  5
1E2
 10
896.38519516
 20
-693.81147541
 30
0.0
 11
917.40739345
 21
-693.81147541
 31
0.0
  0
INSERT
  8
LAYER0001
  6
CONTINUOUS
 62
       7
  5
1E3
  2
_OPEN30
 10
946.38519516
 20
-693.81147541
 30
0.0
 41
30.00002788
 42
29.99989274
 50
360.0
  0
LINE
  8
LAYER0001
  6
CONTINUOUS
 62
       7
  5
1E4
 10
250.85221794
 20
-724.89926405
 30
0.0
 11
250.85221794
 21
-608.89926577
 31
0.0
  0
INSERT
  8
LAYER0001
  6
CONTINUOUS
 62
       7
  5
1E5
  2
_OPEN30
 10
250.85221794
 20
-579.92146405
 30
0.0
 41
30.00002788
 42
29.99989274
 50
90.0
  0
LINE
  8
LAYER0001
  6
CONTINUOUS
 62
       7
  5
1E6
 10
105.04701061
 20
-383.7584378
 30
0.0
 11
105.04701061
 21
-472.44366233
 31
0.0
  0
INSERT
  8
LAYER0001
  6
CONTINUOUS
 62
       7
  5
1E7
  2
_OPEN30
 10
105.04701061
 20
-501.42146405
 30
0.0
 41
30.00002788
 42
29.99989274
 50
270.0
  0
LINE
  8
LAYER0001
  6
CONTINUOUS
 62
       7
  5
1E8
 10
105.04701061
 20
-601.42146405
 30
0.0
 11
105.04701061
 21
-580.39926577
 31
0.0
  0
INSERT
  8
LAYER0001
  6
CONTINUOUS
 62
       7
  5
1E9
  2
_OPEN30
 10
105.04701061
 20
-551.42146405
 30
0.0
 41
30.00002788
 42
29.99989274
 50
90.0
  0
TEXT
  8
LAYER0001
 62
       7
  5
1EA
 10
-727.01746178
 20
635.77868852
 30
0.0
 40
50.0
  1
1700
 41
0.75
 72
       5
 11
-571.01746178
 21
635.77868852
 31
0.0
  0
TEXT
  8
LAYER0001
 62
       7
  5
1EB
 10
-964.01746178
 20
-1036.07779744
 30
0.0
 40
50.0
  1
取付ボルトピッチ最小値　1070
 41
0.75
 72
       5
 11
-334.01746178
 21
-1036.07779744
 31
0.0
  0
TEXT
  8
LAYER0001
 62
       7
  5
1EC
 10
-964.01746178
 20
-879.19484168
 30
0.0
 40
50.0
  1
取付ボルトピッチ最大値　1430
 41
0.75
 72
       5
 11
-334.01746178
 21
-879.19484168
 31
0.0
  0
TEXT
  8
LAYER0001
 62
       7
  5
1ED
 10
631.64131947
 20
611.05059914
 30
0.0
 40
50.0
  1
480
 50
25.0
 41
0.75
 72
       5
 11
737.22617666
 21
660.28562663
 31
0.0
  0
TEXT
  8
LAYER0001
 62
       7
  5
1EE
 10
388.01379831
 20
265.97151366
 30
0.0
 40
50.0
  1
25°
 50
-77.5
 41
0.75
 72
       5
 11
413.22901333
 21
152.23302883
 31
0.0
  0
TEXT
  8
LAYER0001
 62
       7
  5
1EF
 10
795.96220939
 20
497.12877681
 30
0.0
 40
30.0
  1
(392)
 41
0.8
 72
       5
 11
915.96220939
 21
497.12877681
 31
0.0
  0
TEXT
  8
LAYER0001
 62
       7
  5
1F0
 10
1217.35655738
 20
-139.57574715
 30
0.0
 40
50.0
  1
997
 50
90.0
 41
0.75
 72
       5
 11
1217.35655738
 21
-23.07574715
 31
0.0
  0
TEXT
  8
LAYER0001
 62
       7
  5
1F1
 10
576.8920046
 20
36.00728639
 30
0.0
 40
30.0
  1
54
 50
-65.0
 41
0.8
 72
       5
 11
597.17768116
 21
-7.49548739
 31
0.0
  0
TEXT
  8
LAYER0001
 62
       7
  5
1F2
 10
1090.81600803
 20
-683.81147541
 30
0.0
 40
30.0
  1
(106)
 41
0.8
 72
       5
 11
1210.81600803
 21
-683.81147541
 31
0.0
  0
TEXT
  8
LAYER0001
 62
       7
  5
1F3
 10
240.85221794
 20
-714.89926405
 30
0.0
 40
30.0
  1
28.5
 50
90.0
 41
0.8
 72
       5
 11
240.85221794
 21
-618.89926405
 31
0.0
  0
TEXT
  8
LAYER0001
 62
       7
  5
1F4
 10
240.85221794
 20
-484.67146405
 30
0.0
 40
50.0
  1
250
 50
90.0
 41
0.75
 72
       5
 11
240.85221794
 21
-368.17146405
 31
0.0
  0
TEXT
  8
LAYER0001
 62
       7
  5
1F5
 10
95.04701061
 20
-462.44366405
 30
0.0
 40
50.0
  1
50
 50
90.0
 41
0.75
 72
       5
 11
95.04701061
 21
-385.44366405
 31
0.0
  0
INSERT
  8
0
  6
CONTINUOUS
  5
1F6
  2
GROUP_1
 10
0.0
 20
0.0
 30
0.0
  0
INSERT
  8
0
  6
CONTINUOUS
  5
1F7
  2
GROUP_8
 10
0.0
 20
0.0
 30
0.0
  0
INSERT
  8
0
  6
CONTINUOUS
  5
1F8
  2
GROUP_9
 10
0.0
 20
0.0
 30
0.0
  0
INSERT
  8
0
  6
CONTINUOUS
  5
1F9
  2
GROUP_16
 10
0.0
 20
0.0
 30
0.0
  0
INSERT
  8
0
  6
CONTINUOUS
  5
1FA
  2
GROUP_17
 10
0.0
 20
0.0
 30
0.0
  0
INSERT
  8
0
  6
CONTINUOUS
  5
1FB
  2
GROUP_18
 10
0.0
 20
0.0
 30
0.0
  0
INSERT
  8
0
  6
CONTINUOUS
  5
1FC
  2
GROUP_19
 10
0.0
 20
0.0
 30
0.0
  0
INSERT
  8
0
  6
CONTINUOUS
  5
1FD
  2
GROUP_26
 10
0.0
 20
0.0
 30
0.0
  0
INSERT
  8
0
  6
CONTINUOUS
  5
1FE
  2
GROUP_28
 10
0.0
 20
0.0
 30
0.0
  0
INSERT
  8
0
  6
CONTINUOUS
  5
1FF
  2
GROUP_29
 10
0.0
 20
0.0
 30
0.0
  0
INSERT
  8
0
  6
CONTINUOUS
  5
200
  2
GROUP_31
 10
0.0
 20
0.0
 30
0.0
  0
INSERT
  8
0
  6
CONTINUOUS
  5
201
  2
GROUP_33
 10
0.0
 20
0.0
 30
0.0
  0
INSERT
  8
0
  6
CONTINUOUS
  5
202
  2
GROUP_34
 10
0.0
 20
0.0
 30
0.0
  0
INSERT
  8
0
  6
CONTINUOUS
  5
203
  2
GROUP_35
 10
0.0
 20
0.0
 30
0.0
  0
INSERT
  8
0
  6
CONTINUOUS
  5
204
  2
GROUP_36
 10
0.0
 20
0.0
 30
0.0
  0
INSERT
  8
0
  6
CONTINUOUS
  5
205
  2
GROUP_37
 10
0.0
 20
0.0
 30
0.0
  0
CIRCLE
  8
LAYER0005
  6
CONTINUOUS
 62
       7
  5
206
 10
926.21395039
 20
230.17783236
 30
0.0
 40
2.5
  0
CIRCLE
  8
LAYER0005
  6
CONTINUOUS
 62
       7
  5
207
 10
926.38519516
 20
180.07853595
 30
0.0
 40
2.5
  0
CIRCLE
  8
LAYER0005
  6
CONTINUOUS
 62
       7
  5
208
 10
926.38519516
 20
160.07853595
 30
0.0
 40
2.5
  0
LINE
  8
LAYER0005
  6
CONTINUOUS
 62
       7
  5
209
 10
1018.23142502
 20
250.0598055
 30
0.0
 11
960.25592339
 21
167.85648916
 31
0.0
  0
LINE
  8
LAYER0005
  6
CONTINUOUS
 62
       7
  5
20A
 10
999.53422996
 20
332.95622036
 30
0.0
 11
997.72161438
 21
332.11098383
 31
0.0
  0
LINE
  8
LAYER0005
  6
CONTINUOUS
 62
       7
  5
20B
 10
1016.01634216
 20
297.61021666
 30
0.0
 11
999.53422996
 21
332.95622036
 31
0.0
  0
LINE
  8
LAYER0005
  6
CONTINUOUS
 62
       7
  5
20C
 10
997.72161438
 20
332.11098383
 30
0.0
 11
1013.35849007
 21
298.57759571
 31
0.0
  0
LINE
  8
LAYER0005
  6
CONTINUOUS
 62
       7
  5
20D
 10
1012.45218228
 20
298.15497745
 30
0.0
 11
1020.90454751
 21
280.02882171
 31
0.0
  0
ARC
  8
LAYER0005
  6
CONTINUOUS
 62
       7
  5
20E
 10
993.7153139
 20
267.35027386
 30
0.0
 40
30.0
 50
324.80584552
 51
385.0
  0
LINE
  8
LAYER0005
  6
CONTINUOUS
 62
       7
  5
20F
 10
773.68805975
 20
136.02736153
 30
0.0
 11
873.92538756
 21
127.59989917
 31
0.0
  0
ARC
  8
LAYER0005
  6
CONTINUOUS
 62
       7
  5
210
 10
776.20144501
 20
165.92189104
 30
0.0
 40
30.0
 50
205.0
 51
265.19415448
  0
ARC
  8
LAYER0005
  6
CONTINUOUS
 62
       7
  5
211
 10
993.7153139
 20
267.35027386
 30
0.0
 40
30.0
 50
324.80584552
 51
385.0
  0
ARC
  8
LAYER0005
  6
CONTINUOUS
 62
       7
  5
212
 10
876.43877282
 20
157.49442868
 30
0.0
 40
30.0
 50
265.19415448
 51
295.0
  0
ARC
  8
LAYER0005
  6
CONTINUOUS
 62
       7
  5
213
 10
935.73981227
 20
185.14695751
 30
0.0
 40
30.0
 50
295.0
 51
324.80584552
  0
LINE
  8
LAYER0005
  6
CONTINUOUS
 62
       7
  5
214
 10
948.41836012
 20
157.9577239
 30
0.0
 11
889.11732067
 21
130.30519507
 31
0.0
  0
LINE
  8
LAYER0005
  6
CONTINUOUS
 62
       7
  5
215
 10
749.0122114
 20
153.24334319
 30
0.0
 11
740.55984617
 21
171.36949893
 31
0.0
  0
LINE
  8
LAYER0005
  6
CONTINUOUS
 62
       7
  5
216
 10
739.65353838
 20
170.94688067
 30
0.0
 11
1013.35849007
 21
298.57759571
 31
0.0
  0
LINE
  8
LAYER0005
  6
CONTINUOUS
 62
       7
  5
217
 10
738.68615933
 20
168.28902857
 30
0.0
 11
722.20404712
 21
203.63503226
 31
0.0
  0
LINE
  8
LAYER0005
  6
CONTINUOUS
 62
       7
  5
218
 10
724.0166627
 20
204.48026879
 30
0.0
 11
739.65353838
 21
170.94688067
 31
0.0
  0
LINE
  8
0
  6
CONTINUOUS
 62
       7
  5
219
 10
1021.08365002
 20
347.46396938
 30
0.0
 11
1022.09974148
 21
347.46396938
 31
0.0
  0
LINE
  8
0
  6
CONTINUOUS
 62
       7
  5
21A
 10
738.68615933
 20
168.28902857
 30
0.0
 11
741.40508269
 21
169.55688336
 31
0.0
  0
LINE
  8
0
  6
CENTER
 62
       7
  5
21B
 10
937.40363285
 20
-301.42146405
 30
0.0
 11
957.66724726
 21
-301.42146405
 31
0.0
  0
LINE
  8
0
  6
CENTER
 62
       7
  5
21C
 10
937.40363285
 20
-551.42146405
 30
0.0
 11
957.66724726
 21
-551.42146405
 31
0.0
  0
LINE
  8
0
  6
CENTER
 62
       7
  5
21D
 10
937.40363285
 20
-451.42146405
 30
0.0
 11
957.66724726
 21
-451.42146405
 31
0.0
  0
LINE
  8
0
  6
CENTER
 62
       7
  5
21E
 10
937.40363285
 20
-401.42146405
 30
0.0
 11
957.66724726
 21
-401.42146405
 31
0.0
  0
LINE
  8
0
  6
CENTER
 62
       7
  5
21F
 10
-1223.97557436
 20
-301.42146405
 30
0.0
 11
-1264.46683838
 21
-301.42146405
 31
0.0
  0
LINE
  8
0
  6
CENTER
 62
       7
  5
220
 10
-1244.01746178
 20
-287.42146405
 30
0.0
 11
-1244.01746178
 21
-566.12818469
 31
0.0
  0
LINE
  8
0
  6
CENTER
 62
       7
  5
221
 10
-1223.97557436
 20
-351.42146405
 30
0.0
 11
-1264.46683838
 21
-351.42146405
 31
0.0
  0
LINE
  8
0
  6
CENTER
 62
       7
  5
222
 10
-1223.97557436
 20
-401.42146405
 30
0.0
 11
-1264.46683838
 21
-401.42146405
 31
0.0
  0
LINE
  8
0
  6
CENTER
 62
       7
  5
223
 10
-1223.97557436
 20
-451.42146405
 30
0.0
 11
-1264.46683838
 21
-451.42146405
 31
0.0
  0
LINE
  8
0
  6
CENTER
 62
       7
  5
224
 10
-1223.97557436
 20
-501.42146405
 30
0.0
 11
-1264.46683838
 21
-501.42146405
 31
0.0
  0
LINE
  8
0
  6
CENTER
 62
       7
  5
225
 10
-1223.97557436
 20
-551.42146405
 30
0.0
 11
-1264.46683838
 21
-551.42146405
 31
0.0
  0
LINE
  8
0
  6
CENTER
 62
       7
  5
226
 10
-33.97557436
 20
-301.42146405
 30
0.0
 11
-74.46683838
 21
-301.42146405
 31
0.0
  0
LINE
  8
0
  6
CENTER
 62
       7
  5
227
 10
-54.01746178
 20
-287.42146405
 30
0.0
 11
-54.01746178
 21
-566.12818469
 31
0.0
  0
LINE
  8
0
  6
CENTER
 62
       7
  5
228
 10
-33.97557436
 20
-351.42146405
 30
0.0
 11
-74.46683838
 21
-351.42146405
 31
0.0
  0
LINE
  8
0
  6
CENTER
 62
       7
  5
229
 10
-33.97557436
 20
-401.42146405
 30
0.0
 11
-74.46683838
 21
-401.42146405
 31
0.0
  0
LINE
  8
0
  6
CENTER
 62
       7
  5
22A
 10
-33.97557436
 20
-451.42146405
 30
0.0
 11
-74.46683838
 21
-451.42146405
 31
0.0
  0
LINE
  8
0
  6
CENTER
 62
       7
  5
22B
 10
-33.97557436
 20
-501.42146405
 30
0.0
 11
-74.46683838
 21
-501.42146405
 31
0.0
  0
LINE
  8
0
  6
CENTER
 62
       7
  5
22C
 10
-33.97557436
 20
-551.42146405
 30
0.0
 11
-74.46683838
 21
-551.42146405
 31
0.0
  0
LINE
  8
0
  6
CENTER
 62
       7
  5
22D
 10
-649.01746178
 20
48.68852459
 30
0.0
 11
-649.01746178
 21
462.54098361
 31
0.0
  0
LINE
  8
0
  6
CENTER
 62
       7
  5
22E
 10
871.97447529
 20
232.64914688
 30
0.0
 11
845.96277971
 21
288.43140806
 31
0.0
  0
LINE
  8
ZUWAKU
  6
CONTINUOUS
 62
       7
  5
22F
 10
1031.66666667
 20
-1027.5
 30
0.0
 11
2021.66666667
 21
-1027.5
 31
0.0
  0
LINE
  8
ZUWAKU
  6
CONTINUOUS
 62
       7
  5
230
 10
1031.66666667
 20
-977.5
 30
0.0
 11
2021.66666667
 21
-977.5
 31
0.0
  0
LINE
  8
ZUWAKU
  6
CONTINUOUS
 62
       7
  5
231
 10
1031.66666667
 20
-927.5
 30
0.0
 11
2021.66666667
 21
-927.5
 31
0.0
  0
LINE
  8
ZUWAKU
  6
CONTINUOUS
 62
       7
  5
232
 10
1031.66666667
 20
-877.5
 30
0.0
 11
2021.66666667
 21
-877.5
 31
0.0
  0
LINE
  8
ZUWAKU
  6
CONTINUOUS
 62
       7
  5
233
 10
1031.66666667
 20
-1077.5
 30
0.0
 11
1031.66666667
 21
-1415.0
 31
0.0
  0
LINE
  8
ZUWAKU
  6
CONTINUOUS
 62
       7
  5
234
 10
1031.66666667
 20
-1115.0
 30
0.0
 11
2021.66666667
 21
-1115.0
 31
0.0
  0
LINE
  8
ZUWAKU
  6
CONTINUOUS
 62
       7
  5
235
 10
1616.66666667
 20
-1235.0
 30
0.0
 11
1616.66666667
 21
-1310.0
 31
0.0
  0
LINE
  8
ZUWAKU
  6
CONTINUOUS
 62
       7
  5
236
 10
1669.16666667
 20
-1115.0
 30
0.0
 11
1669.16666667
 21
-1235.0
 31
0.0
  0
LINE
  8
ZUWAKU
  6
CONTINUOUS
 62
       7
  5
237
 10
1031.66666667
 20
-1235.0
 30
0.0
 11
2021.66666667
 21
-1235.0
 31
0.0
  0
LINE
  8
ZUWAKU
  6
CONTINUOUS
 62
       7
  5
238
 10
2021.66666667
 20
-1310.0
 30
0.0
 11
1031.66666667
 21
-1310.0
 31
0.0
  0
LINE
  8
ZUWAKU
  6
CONTINUOUS
 62
       7
  5
239
 10
1084.16666667
 20
-1115.0
 30
0.0
 11
1084.16666667
 21
-1310.0
 31
0.0
  0
LINE
  8
ZUWAKU
  6
CONTINUOUS
 62
       7
  5
23A
 10
1669.16666667
 20
-1235.0
 30
0.0
 11
1669.16666667
 21
-1310.0
 31
0.0
  0
LINE
  8
ZUWAKU
  6
CONTINUOUS
 62
       7
  5
23B
 10
1721.66666667
 20
-1115.0
 30
0.0
 11
1721.66666667
 21
-1235.0
 31
0.0
  0
LINE
  8
ZUWAKU
  6
CONTINUOUS
 62
       7
  5
23C
 10
2021.66666667
 20
-1077.5
 30
0.0
 11
1031.66666667
 21
-1077.5
 31
0.0
  0
LINE
  8
ZUWAKU
  6
CONTINUOUS
 62
       7
  5
23D
 10
1526.66666667
 20
-1235.0
 30
0.0
 11
1526.66666667
 21
-1415.0
 31
0.0
  0
LINE
  8
ZUWAKU
  6
CONTINUOUS
 62
       7
  5
23E
 10
1474.16666667
 20
-1235.0
 30
0.0
 11
1474.16666667
 21
-1310.0
 31
0.0
  0
LINE
  8
ZUWAKU
  6
CONTINUOUS
 62
       7
  5
23F
 10
1384.16666667
 20
-1235.0
 30
0.0
 11
1384.16666667
 21
-1310.0
 31
0.0
  0
LINE
  8
ZUWAKU
  6
CONTINUOUS
 62
       7
  5
240
 10
1331.66666667
 20
-1235.0
 30
0.0
 11
1331.66666667
 21
-1310.0
 31
0.0
  0
LINE
  8
ZUWAKU
  6
CONTINUOUS
 62
       7
  5
241
 10
1114.16666667
 20
-1310.0
 30
0.0
 11
1114.16666667
 21
-1415.0
 31
0.0
  0
LINE
  8
ZUWAKU
  6
CONTINUOUS
 62
       7
  5
242
 10
1031.66666667
 20
-1077.5
 30
0.0
 11
2021.66666667
 21
-1077.5
 31
0.0
  0
ARC
  8
ZUWAKU
  6
CONTINUOUS
 62
       7
  5
243
 10
1624.12780078
 20
-1340.46477393
 30
0.0
 40
0.65080334
 50
90.0
 51
270.0
  0
LINE
  8
ZUWAKU
  6
CONTINUOUS
 62
       7
  5
244
 10
1624.12780078
 20
-1341.11557726
 30
0.0
 11
1630.31043247
 21
-1341.11557726
 31
0.0
  0
ARC
  8
ZUWAKU
  6
CONTINUOUS
 62
       7
  5
245
 10
1630.31043247
 20
-1351.20302896
 30
0.0
 40
10.0874517
 50
0.0
 51
90.0
  0
LINE
  8
ZUWAKU
  6
CONTINUOUS
 62
       7
  5
246
 10
1640.39788416
 20
-1351.20302896
 30
0.0
 11
1640.39788416
 21
-1392.52904076
 31
0.0
  0
LINE
  8
ZUWAKU
  6
CONTINUOUS
 62
       7
  5
247
 10
1640.39788416
 20
-1392.52904076
 30
0.0
 11
1546.03140054
 21
-1392.52904076
 31
0.0
  0
LINE
  8
ZUWAKU
  6
CONTINUOUS
 62
       7
  5
248
 10
1546.03140054
 20
-1392.52904076
 30
0.0
 11
1546.03140054
 21
-1351.20302896
 31
0.0
  0
ARC
  8
ZUWAKU
  6
CONTINUOUS
 62
       7
  5
249
 10
1556.11885223
 20
-1351.20302896
 30
0.0
 40
10.0874517
 50
90.0
 51
180.0
  0
LINE
  8
ZUWAKU
  6
CONTINUOUS
 62
       7
  5
24A
 10
1556.11885223
 20
-1341.11557726
 30
0.0
 11
1562.30148392
 21
-1341.11557726
 31
0.0
  0
ARC
  8
ZUWAKU
  6
CONTINUOUS
 62
       7
  5
24B
 10
1562.30148392
 20
-1340.46477393
 30
0.0
 40
0.65080334
 50
270.0
 51
450.0
  0
LINE
  8
ZUWAKU
  6
CONTINUOUS
 62
       7
  5
24C
 10
1562.30148392
 20
-1339.81397059
 30
0.0
 11
1556.11885223
 21
-1339.81397059
 31
0.0
  0
ARC
  8
ZUWAKU
  6
CONTINUOUS
 62
       7
  5
24D
 10
1556.11885223
 20
-1351.20302896
 30
0.0
 40
11.38905837
 50
90.0
 51
180.0
  0
LINE
  8
ZUWAKU
  6
CONTINUOUS
 62
       7
  5
24E
 10
1544.72979387
 20
-1351.20302896
 30
0.0
 11
1544.72979387
 21
-1393.83064743
 31
0.0
  0
LINE
  8
ZUWAKU
  6
CONTINUOUS
 62
       7
  5
24F
 10
1544.72979387
 20
-1393.83064743
 30
0.0
 11
1641.69949084
 21
-1393.83064743
 31
0.0
  0
LINE
  8
ZUWAKU
  6
CONTINUOUS
 62
       7
  5
250
 10
1641.69949084
 20
-1393.83064743
 30
0.0
 11
1641.69949084
 21
-1351.20302896
 31
0.0
  0
ARC
  8
ZUWAKU
  6
CONTINUOUS
 62
       7
  5
251
 10
1630.31043247
 20
-1351.20302896
 30
0.0
 40
11.38905837
 50
0.0
 51
90.0
  0
LINE
  8
ZUWAKU
  6
CONTINUOUS
 62
       7
  5
252
 10
1630.31043247
 20
-1339.81397059
 30
0.0
 11
1624.12780078
 21
-1339.81397059
 31
0.0
  0
LINE
  8
ZUWAKU
  6
CONTINUOUS
 62
       7
  5
253
 10
1574.35064959
 20
-1371.24644652
 30
0.0
 11
1574.25447277
 21
-1371.98027684
 31
0.0
  0
LINE
  8
ZUWAKU
  6
CONTINUOUS
 62
       7
  5
254
 10
1574.25447277
 20
-1371.98027684
 30
0.0
 11
1574.24485817
 21
-1373.19588137
 31
0.0
  0
LINE
  8
ZUWAKU
  6
CONTINUOUS
 62
       7
  5
255
 10
1574.24485817
 20
-1373.19588137
 30
0.0
 11
1574.38268289
 21
-1374.42317789
 31
0.0
  0
LINE
  8
ZUWAKU
  6
CONTINUOUS
 62
       7
  5
256
 10
1574.38268289
 20
-1374.42317789
 30
0.0
 11
1574.66743068
 21
-1375.65341271
 31
0.0
  0
LINE
  8
ZUWAKU
  6
CONTINUOUS
 62
       7
  5
257
 10
1574.66743068
 20
-1375.65341271
 30
0.0
 11
1575.09758291
 21
-1376.87754189
 31
0.0
  0
LINE
  8
ZUWAKU
  6
CONTINUOUS
 62
       7
  5
258
 10
1575.09758291
 20
-1376.87754189
 30
0.0
 11
1575.67051894
 21
-1378.08630649
 31
0.0
  0
LINE
  8
ZUWAKU
  6
CONTINUOUS
 62
       7
  5
259
 10
1575.67051894
 20
-1378.08630649
 30
0.0
 11
1576.38245451
 21
-1379.27035262
 31
0.0
  0
LINE
  8
ZUWAKU
  6
CONTINUOUS
 62
       7
  5
25A
 10
1576.38245451
 20
-1379.27035262
 30
0.0
 11
1577.22842641
 21
-1380.42036957
 31
0.0
  0
LINE
  8
ZUWAKU
  6
CONTINUOUS
 62
       7
  5
25B
 10
1577.22842641
 20
-1380.42036957
 30
0.0
 11
1578.20231775
 21
-1381.52722507
 31
0.0
  0
LINE
  8
ZUWAKU
  6
CONTINUOUS
 62
       7
  5
25C
 10
1578.20231775
 20
-1381.52722507
 30
0.0
 11
1579.2969127
 21
-1382.58208616
 31
0.0
  0
LINE
  8
ZUWAKU
  6
CONTINUOUS
 62
       7
  5
25D
 10
1579.2969127
 20
-1382.58208616
 30
0.0
 11
1580.50396969
 21
-1383.57652228
 31
0.0
  0
LINE
  8
ZUWAKU
  6
CONTINUOUS
 62
       7
  5
25E
 10
1580.50396969
 20
-1383.57652228
 30
0.0
 11
1581.81430539
 21
-1384.50259159
 31
0.0
  0
LINE
  8
ZUWAKU
  6
CONTINUOUS
 62
       7
  5
25F
 10
1581.81430539
 20
-1384.50259159
 30
0.0
 11
1583.21788435
 21
-1385.35291331
 31
0.0
  0
LINE
  8
ZUWAKU
  6
CONTINUOUS
 62
       7
  5
260
 10
1583.21788435
 20
-1385.35291331
 30
0.0
 11
1584.70391201
 21
-1386.12072906
 31
0.0
  0
LINE
  8
ZUWAKU
  6
CONTINUOUS
 62
       7
  5
261
 10
1584.70391201
 20
-1386.12072906
 30
0.0
 11
1586.26092988
 21
-1386.79995535
 31
0.0
  0
LINE
  8
ZUWAKU
  6
CONTINUOUS
 62
       7
  5
262
 10
1586.26092988
 20
-1386.79995535
 30
0.0
 11
1587.87691244
 21
-1387.38522898
 31
0.0
  0
LINE
  8
ZUWAKU
  6
CONTINUOUS
 62
       7
  5
263
 10
1587.87691244
 20
-1387.38522898
 30
0.0
 11
1589.53936573
 21
-1387.8719462
 31
0.0
  0
LINE
  8
ZUWAKU
  6
CONTINUOUS
 62
       7
  5
264
 10
1589.53936573
 20
-1387.8719462
 30
0.0
 11
1591.23542745
 21
-1388.25629614
 31
0.0
  0
LINE
  8
ZUWAKU
  6
CONTINUOUS
 62
       7
  5
265
 10
1591.23542745
 20
-1388.25629614
 30
0.0
 11
1592.95196852
 21
-1388.53528898
 31
0.0
  0
LINE
  8
ZUWAKU
  6
CONTINUOUS
 62
       7
  5
266
 10
1592.95196852
 20
-1388.53528898
 30
0.0
 11
1594.67569585
 21
-1388.7067786
 31
0.0
  0
LINE
  8
ZUWAKU
  6
CONTINUOUS
 62
       7
  5
267
 10
1594.67569585
 20
-1388.7067786
 30
0.0
 11
1596.39325615
 21
-1388.76948006
 31
0.0
  0
LINE
  8
ZUWAKU
  6
CONTINUOUS
 62
       7
  5
268
 10
1596.39325615
 20
-1388.76948006
 30
0.0
 11
1598.09134062
 21
-1388.72298157
 31
0.0
  0
LINE
  8
ZUWAKU
  6
CONTINUOUS
 62
       7
  5
269
 10
1598.09134062
 20
-1388.72298157
 30
0.0
 11
1599.75679032
 21
-1388.56775097
 31
0.0
  0
LINE
  8
ZUWAKU
  6
CONTINUOUS
 62
       7
  5
26A
 10
1599.75679032
 20
-1388.56775097
 30
0.0
 11
1601.3767022
 21
-1388.30513633
 31
0.0
  0
LINE
  8
ZUWAKU
  6
CONTINUOUS
 62
       7
  5
26B
 10
1601.3767022
 20
-1388.30513633
 30
0.0
 11
1602.93853597
 21
-1387.93736021
 31
0.0
  0
LINE
  8
ZUWAKU
  6
CONTINUOUS
 62
       7
  5
26C
 10
1602.93853597
 20
-1387.93736021
 30
0.0
 11
1604.43022205
 21
-1387.4675066
 31
0.0
  0
LINE
  8
ZUWAKU
  6
CONTINUOUS
 62
       7
  5
26D
 10
1604.43022205
 20
-1387.4675066
 30
0.0
 11
1605.84027073
 21
-1386.89949891
 31
0.0
  0
LINE
  8
ZUWAKU
  6
CONTINUOUS
 62
       7
  5
26E
 10
1605.84027073
 20
-1386.89949891
 30
0.0
 11
1607.15788243
 21
-1386.23806649
 31
0.0
  0
LINE
  8
ZUWAKU
  6
CONTINUOUS
 62
       7
  5
26F
 10
1607.15788243
 20
-1386.23806649
 30
0.0
 11
1608.37305785
 21
-1385.48869599
 31
0.0
  0
LINE
  8
ZUWAKU
  6
CONTINUOUS
 62
       7
  5
270
 10
1608.37305785
 20
-1385.48869599
 30
0.0
 11
1609.4767045
 21
-1384.65756329
 31
0.0
  0
LINE
  8
ZUWAKU
  6
CONTINUOUS
 62
       7
  5
271
 10
1609.4767045
 20
-1384.65756329
 30
0.0
 11
1610.46304494
 21
-1383.74931272
 31
0.0
  0
ARC
  8
ZUWAKU
  6
CONTINUOUS
 62
       7
  5
272
 10
1621.93943133
 20
-1384.77835084
 30
0.0
 40
0.32540167
 50
349.0
 51
405.0
  0
LINE
  8
ZUWAKU
  6
CONTINUOUS
 62
       7
  5
273
 10
1622.16952506
 20
-1384.54825711
 30
0.0
 11
1614.27192215
 21
-1376.65065421
 31
0.0
  0
ARC
  8
ZUWAKU
  6
CONTINUOUS
 62
       7
  5
274
 10
1615.41476319
 20
-1376.41293289
 30
0.0
 40
0.976205
 50
169.0
 51
225.0
  0
LINE
  8
ZUWAKU
  6
CONTINUOUS
 62
       7
  5
275
 10
1614.45649382
 20
-1376.22666419
 30
0.0
 11
1614.64442931
 21
-1375.25981993
 31
0.0
  0
LINE
  8
ZUWAKU
  6
CONTINUOUS
 62
       7
  5
276
 10
1614.80759717
 20
-1374.01484716
 30
0.0
 11
1614.81783573
 21
-1372.72035281
 31
0.0
  0
LINE
  8
ZUWAKU
  6
CONTINUOUS
 62
       7
  5
277
 10
1610.79323984
 20
-1364.08180402
 30
0.0
 11
1609.54805529
 21
-1362.88181974
 31
0.0
  0
LINE
  8
ZUWAKU
  6
CONTINUOUS
 62
       7
  5
278
 10
1609.54805529
 20
-1362.88181974
 30
0.0
 11
1608.30288637
 21
-1361.85598503
 31
0.0
  0
LINE
  8
ZUWAKU
  6
CONTINUOUS
 62
       7
  5
279
 10
1608.30288637
 20
-1361.85598503
 30
0.0
 11
1606.95415499
 21
-1360.90277988
 31
0.0
  0
LINE
  8
ZUWAKU
  6
CONTINUOUS
 62
       7
  5
27A
 10
1606.95415499
 20
-1360.90277988
 30
0.0
 11
1605.51206283
 21
-1360.02912594
 31
0.0
  0
LINE
  8
ZUWAKU
  6
CONTINUOUS
 62
       7
  5
27B
 10
1605.51206283
 20
-1360.02912594
 30
0.0
 11
1603.98747261
 21
-1359.2413853
 31
0.0
  0
LINE
  8
ZUWAKU
  6
CONTINUOUS
 62
       7
  5
27C
 10
1603.98747261
 20
-1359.2413853
 30
0.0
 11
1602.39183845
 21
-1358.54531321
 31
0.0
  0
LINE
  8
ZUWAKU
  6
CONTINUOUS
 62
       7
  5
27D
 10
1602.39183845
 20
-1358.54531321
 30
0.0
 11
1600.73712841
 21
-1357.94601333
 31
0.0
  0
LINE
  8
ZUWAKU
  6
CONTINUOUS
 62
       7
  5
27E
 10
1600.73712841
 20
-1357.94601333
 30
0.0
 11
1599.03574048
 21
-1357.44789721
 31
0.0
  0
LINE
  8
ZUWAKU
  6
CONTINUOUS
 62
       7
  5
27F
 10
1599.03574048
 20
-1357.44789721
 30
0.0
 11
1597.30041323
 21
-1357.05464917
 31
0.0
  0
LINE
  8
ZUWAKU
  6
CONTINUOUS
 62
       7
  5
280
 10
1597.30041323
 20
-1357.05464917
 30
0.0
 11
1595.54413252
 21
-1356.76919737
 31
0.0
  0
LINE
  8
ZUWAKU
  6
CONTINUOUS
 62
       7
  5
281
 10
1595.54413252
 20
-1356.76919737
 30
0.0
 11
1593.78003552
 21
-1356.59369147
 31
0.0
  0
LINE
  8
ZUWAKU
  6
CONTINUOUS
 62
       7
  5
282
 10
1593.78003552
 20
-1356.59369147
 30
0.0
 11
1592.0213134
 21
-1356.52948735
 31
0.0
  0
LINE
  8
ZUWAKU
  6
CONTINUOUS
 62
       7
  5
283
 10
1592.0213134
 20
-1356.52948735
 30
0.0
 11
1590.28111397
 21
-1356.57713907
 31
0.0
  0
LINE
  8
ZUWAKU
  6
CONTINUOUS
 62
       7
  5
284
 10
1590.28111397
 20
-1356.57713907
 30
0.0
 11
1588.5724457
 21
-1356.73639792
 31
0.0
  0
LINE
  8
ZUWAKU
  6
CONTINUOUS
 62
       7
  5
285
 10
1588.5724457
 20
-1356.73639792
 30
0.0
 11
1586.90808461
 21
-1357.00621852
 31
0.0
  0
LINE
  8
ZUWAKU
  6
CONTINUOUS
 62
       7
  5
286
 10
1586.90808461
 20
-1357.00621852
 30
0.0
 11
1585.30048572
 21
-1357.38477128
 31
0.0
  0
LINE
  8
ZUWAKU
  6
CONTINUOUS
 62
       7
  5
287
 10
1585.30048572
 20
-1357.38477128
 30
0.0
 11
1583.76170075
 21
-1357.86946017
 31
0.0
  0
LINE
  8
ZUWAKU
  6
CONTINUOUS
 62
       7
  5
288
 10
1583.76170075
 20
-1357.86946017
 30
0.0
 11
1582.30330368
 21
-1358.45694396
 31
0.0
  0
LINE
  8
ZUWAKU
  6
CONTINUOUS
 62
       7
  5
289
 10
1582.30330368
 20
-1358.45694396
 30
0.0
 11
1580.93632557
 21
-1359.143158
 31
0.0
  0
LINE
  8
ZUWAKU
  6
CONTINUOUS
 62
       7
  5
28A
 10
1580.93632557
 20
-1359.143158
 30
0.0
 11
1579.67119844
 21
-1359.92333255
 31
0.0
  0
LINE
  8
ZUWAKU
  6
CONTINUOUS
 62
       7
  5
28B
 10
1579.67119844
 20
-1359.92333255
 30
0.0
 11
1578.51770642
 21
-1360.79200273
 31
0.0
  0
LINE
  8
ZUWAKU
  6
CONTINUOUS
 62
       7
  5
28C
 10
1578.51770642
 20
-1360.79200273
 30
0.0
 11
1577.48493804
 21
-1361.74300549
 31
0.0
  0
LINE
  8
ZUWAKU
  6
CONTINUOUS
 62
       7
  5
28D
 10
1577.48493804
 20
-1361.74300549
 30
0.0
 11
1576.42946528
 21
-1362.94184021
 31
0.0
  0
LINE
  8
ZUWAKU
  6
CONTINUOUS
 62
       7
  5
28E
 10
1574.61196974
 20
-1366.61758416
 30
0.0
 11
1574.39198397
 21
-1367.4661715
 31
0.0
  0
LINE
  8
ZUWAKU
  6
CONTINUOUS
 62
       7
  5
28F
 10
1574.39198397
 20
-1367.4661715
 30
0.0
 11
1574.22490088
 21
-1368.74101755
 31
0.0
  0
LINE
  8
ZUWAKU
  6
CONTINUOUS
 62
       7
  5
290
 10
1574.22490088
 20
-1368.74101755
 30
0.0
 11
1574.21466231
 21
-1370.03551191
 31
0.0
  0
LINE
  8
ZUWAKU
  6
CONTINUOUS
 62
       7
  5
291
 10
1574.21466231
 20
-1370.03551191
 30
0.0
 11
1574.36104389
 21
-1371.33900523
 31
0.0
  0
LINE
  8
ZUWAKU
  6
CONTINUOUS
 62
       7
  5
292
 10
1574.36104389
 20
-1371.33900523
 30
0.0
 11
1574.66239888
 21
-1372.6409904
 31
0.0
  0
LINE
  8
ZUWAKU
  6
CONTINUOUS
 62
       7
  5
293
 10
1574.66239888
 20
-1372.6409904
 30
0.0
 11
1575.11578532
 21
-1373.93123961
 31
0.0
  0
LINE
  8
ZUWAKU
  6
CONTINUOUS
 62
       7
  5
294
 10
1575.11578532
 20
-1373.93123961
 30
0.0
 11
1575.71709959
 21
-1375.19987586
 31
0.0
  0
LINE
  8
ZUWAKU
  6
CONTINUOUS
 62
       7
  5
295
 10
1575.71709959
 20
-1375.19987586
 30
0.0
 11
1576.46118919
 21
-1376.43739854
 31
0.0
  0
LINE
  8
ZUWAKU
  6
CONTINUOUS
 62
       7
  5
296
 10
1576.46118919
 20
-1376.43739854
 30
0.0
 11
1577.34193611
 21
-1377.63468875
 31
0.0
  0
LINE
  8
ZUWAKU
  6
CONTINUOUS
 62
       7
  5
297
 10
1577.34193611
 20
-1377.63468875
 30
0.0
 11
1578.35231584
 21
-1378.78301434
 31
0.0
  0
LINE
  8
ZUWAKU
  6
CONTINUOUS
 62
       7
  5
298
 10
1578.35231584
 20
-1378.78301434
 30
0.0
 11
1579.48444275
 21
-1379.87404498
 31
0.0
  0
LINE
  8
ZUWAKU
  6
CONTINUOUS
 62
       7
  5
299
 10
1579.48444275
 20
-1379.87404498
 30
0.0
 11
1580.72961168
 21
-1380.89987969
 31
0.0
  0
LINE
  8
ZUWAKU
  6
CONTINUOUS
 62
       7
  5
29A
 10
1580.72961168
 20
-1380.89987969
 30
0.0
 11
1582.07834305
 21
-1381.85308484
 31
0.0
  0
LINE
  8
ZUWAKU
  6
CONTINUOUS
 62
       7
  5
29B
 10
1582.07834305
 20
-1381.85308484
 30
0.0
 11
1583.52043521
 21
-1382.72673878
 31
0.0
  0
LINE
  8
ZUWAKU
  6
CONTINUOUS
 62
       7
  5
29C
 10
1583.52043521
 20
-1382.72673878
 30
0.0
 11
1585.04502543
 21
-1383.51447942
 31
0.0
  0
LINE
  8
ZUWAKU
  6
CONTINUOUS
 62
       7
  5
29D
 10
1585.04502543
 20
-1383.51447942
 30
0.0
 11
1586.6406596
 21
-1384.2105515
 31
0.0
  0
LINE
  8
ZUWAKU
  6
CONTINUOUS
 62
       7
  5
29E
 10
1586.6406596
 20
-1384.2105515
 30
0.0
 11
1588.29536963
 21
-1384.80985139
 31
0.0
  0
LINE
  8
ZUWAKU
  6
CONTINUOUS
 62
       7
  5
29F
 10
1588.29536963
 20
-1384.80985139
 30
0.0
 11
1589.99675756
 21
-1385.30796751
 31
0.0
  0
LINE
  8
ZUWAKU
  6
CONTINUOUS
 62
       7
  5
2A0
 10
1589.99675756
 20
-1385.30796751
 30
0.0
 11
1591.73208481
 21
-1385.70121555
 31
0.0
  0
LINE
  8
ZUWAKU
  6
CONTINUOUS
 62
       7
  5
2A1
 10
1591.73208481
 20
-1385.70121555
 30
0.0
 11
1593.48836552
 21
-1385.98666735
 31
0.0
  0
LINE
  8
ZUWAKU
  6
CONTINUOUS
 62
       7
  5
2A2
 10
1593.48836552
 20
-1385.98666735
 30
0.0
 11
1595.25246252
 21
-1386.16217325
 31
0.0
  0
LINE
  8
ZUWAKU
  6
CONTINUOUS
 62
       7
  5
2A3
 10
1595.25246252
 20
-1386.16217325
 30
0.0
 11
1597.01118464
 21
-1386.22637737
 31
0.0
  0
LINE
  8
ZUWAKU
  6
CONTINUOUS
 62
       7
  5
2A4
 10
1597.01118464
 20
-1386.22637737
 30
0.0
 11
1598.75138407
 21
-1386.17872565
 31
0.0
  0
LINE
  8
ZUWAKU
  6
CONTINUOUS
 62
       7
  5
2A5
 10
1598.75138407
 20
-1386.17872565
 30
0.0
 11
1600.46005234
 21
-1386.0194668
 31
0.0
  0
LINE
  8
ZUWAKU
  6
CONTINUOUS
 62
       7
  5
2A6
 10
1600.46005234
 20
-1386.0194668
 30
0.0
 11
1602.12441344
 21
-1385.7496462
 31
0.0
  0
LINE
  8
ZUWAKU
  6
CONTINUOUS
 62
       7
  5
2A7
 10
1602.12441344
 20
-1385.7496462
 30
0.0
 11
1603.73201232
 21
-1385.37109344
 31
0.0
  0
LINE
  8
ZUWAKU
  6
CONTINUOUS
 62
       7
  5
2A8
 10
1603.73201232
 20
-1385.37109344
 30
0.0
 11
1605.2707973
 21
-1384.88640455
 31
0.0
  0
LINE
  8
ZUWAKU
  6
CONTINUOUS
 62
       7
  5
2A9
 10
1605.2707973
 20
-1384.88640455
 30
0.0
 11
1606.72919436
 21
-1384.29892076
 31
0.0
  0
LINE
  8
ZUWAKU
  6
CONTINUOUS
 62
       7
  5
2AA
 10
1606.72919436
 20
-1384.29892076
 30
0.0
 11
1608.09617247
 21
-1383.61270672
 31
0.0
  0
LINE
  8
ZUWAKU
  6
CONTINUOUS
 62
       7
  5
2AB
 10
1608.09617247
 20
-1383.61270672
 30
0.0
 11
1609.3612996
 21
-1382.83253217
 31
0.0
  0
LINE
  8
ZUWAKU
  6
CONTINUOUS
 62
       7
  5
2AC
 10
1609.3612996
 20
-1382.83253217
 30
0.0
 11
1610.51479162
 21
-1381.96386199
 31
0.0
  0
LINE
  8
ZUWAKU
  6
CONTINUOUS
 62
       7
  5
2AD
 10
1610.51479162
 20
-1381.96386199
 30
0.0
 11
1611.54756001
 21
-1381.01285923
 31
0.0
  0
LINE
  8
ZUWAKU
  6
CONTINUOUS
 62
       7
  5
2AE
 10
1611.54756001
 20
-1381.01285923
 30
0.0
 11
1611.69037214
 21
-1380.85064932
 31
0.0
  0
ARC
  8
ZUWAKU
  6
CONTINUOUS
 62
       7
  5
2AF
 10
1620.33244709
 20
-1383.53951656
 30
0.0
 40
0.585723
 50
248.95117018
 51
405.0
  0
LINE
  8
ZUWAKU
  6
CONTINUOUS
 62
       7
  5
2B0
 10
1614.27192215
 20
-1376.65065421
 30
0.0
 11
1614.31786508
 21
-1376.53430033
 31
0.0
  0
LINE
  8
ZUWAKU
  6
CONTINUOUS
 62
       7
  5
2B1
 10
1614.31786508
 20
-1376.53430033
 30
0.0
 11
1614.64051407
 21
-1375.28969322
 31
0.0
  0
LINE
  8
ZUWAKU
  6
CONTINUOUS
 62
       7
  5
2B2
 10
1614.64051407
 20
-1375.28969322
 30
0.0
 11
1614.80759717
 21
-1374.01484716
 31
0.0
  0
LINE
  8
ZUWAKU
  6
CONTINUOUS
 62
       7
  5
2B3
 10
1614.81783573
 20
-1372.72035281
 30
0.0
 11
1614.67145416
 21
-1371.41685949
 31
0.0
  0
LINE
  8
ZUWAKU
  6
CONTINUOUS
 62
       7
  5
2B4
 10
1614.67145416
 20
-1371.41685949
 30
0.0
 11
1614.37009916
 21
-1370.11487432
 31
0.0
  0
LINE
  8
ZUWAKU
  6
CONTINUOUS
 62
       7
  5
2B5
 10
1614.37009916
 20
-1370.11487432
 30
0.0
 11
1613.94978965
 21
-1368.91875559
 31
0.0
  0
LINE
  8
ZUWAKU
  6
CONTINUOUS
 62
       7
  5
2B6
 10
1575.0089709
 20
-1364.77219846
 30
0.0
 11
1575.39116483
 21
-1364.91928281
 31
0.0
  0
LINE
  8
ZUWAKU
  6
CONTINUOUS
 62
       7
  5
2B7
 10
1575.39116483
 20
-1364.91928281
 30
0.0
 11
1575.46235467
 21
-1364.78766079
 31
0.0
  0
LINE
  8
ZUWAKU
  6
CONTINUOUS
 62
       7
  5
2B8
 10
1575.46235467
 20
-1364.78766079
 30
0.0
 11
1575.0089709
 21
-1364.77219846
 31
0.0
  0
LINE
  8
ZUWAKU
  6
CONTINUOUS
 62
       7
  5
2B9
 10
1576.44404834
 20
-1367.32085324
 30
0.0
 11
1576.30973937
 21
-1367.83894538
 31
0.0
  0
LINE
  8
ZUWAKU
  6
CONTINUOUS
 62
       7
  5
2BA
 10
1576.30973937
 20
-1367.83894538
 30
0.0
 11
1576.16350484
 21
-1368.95471663
 31
0.0
  0
LINE
  8
ZUWAKU
  6
CONTINUOUS
 62
       7
  5
2BB
 10
1576.16350484
 20
-1368.95471663
 30
0.0
 11
1576.15453066
 21
-1370.08935023
 31
0.0
  0
LINE
  8
ZUWAKU
  6
CONTINUOUS
 62
       7
  5
2BC
 10
1576.15453066
 20
-1370.08935023
 30
0.0
 11
1576.28318743
 21
-1371.23500837
 31
0.0
  0
LINE
  8
ZUWAKU
  6
CONTINUOUS
 62
       7
  5
2BD
 10
1576.28318743
 20
-1371.23500837
 30
0.0
 11
1576.54902868
 21
-1372.38355867
 31
0.0
  0
LINE
  8
ZUWAKU
  6
CONTINUOUS
 62
       7
  5
2BE
 10
1576.54902868
 20
-1372.38355867
 30
0.0
 11
1576.95067967
 21
-1373.52657887
 31
0.0
  0
LINE
  8
ZUWAKU
  6
CONTINUOUS
 62
       7
  5
2BF
 10
1576.95067967
 20
-1373.52657887
 30
0.0
 11
1577.48573665
 21
-1374.65542732
 31
0.0
  0
LINE
  8
ZUWAKU
  6
CONTINUOUS
 62
       7
  5
2C0
 10
1577.48573665
 20
-1374.65542732
 30
0.0
 11
1578.15070366
 21
-1375.76135833
 31
0.0
  0
LINE
  8
ZUWAKU
  6
CONTINUOUS
 62
       7
  5
2C1
 10
1578.15070366
 20
-1375.76135833
 30
0.0
 11
1578.94097496
 21
-1376.83565569
 31
0.0
  0
LINE
  8
ZUWAKU
  6
CONTINUOUS
 62
       7
  5
2C2
 10
1578.94097496
 20
-1376.83565569
 30
0.0
 11
1579.85085756
 21
-1377.86976341
 31
0.0
  0
LINE
  8
ZUWAKU
  6
CONTINUOUS
 62
       7
  5
2C3
 10
1579.85085756
 20
-1377.86976341
 30
0.0
 11
1580.87362277
 21
-1378.85540218
 31
0.0
  0
LINE
  8
ZUWAKU
  6
CONTINUOUS
 62
       7
  5
2C4
 10
1580.87362277
 20
-1378.85540218
 30
0.0
 11
1582.0015757
 21
-1379.78466828
 31
0.0
  0
LINE
  8
ZUWAKU
  6
CONTINUOUS
 62
       7
  5
2C5
 10
1582.0015757
 20
-1379.78466828
 30
0.0
 11
1583.22613504
 21
-1380.65011583
 31
0.0
  0
LINE
  8
ZUWAKU
  6
CONTINUOUS
 62
       7
  5
2C6
 10
1583.22613504
 20
-1380.65011583
 30
0.0
 11
1584.53791816
 21
-1381.44482544
 31
0.0
  0
LINE
  8
ZUWAKU
  6
CONTINUOUS
 62
       7
  5
2C7
 10
1584.53791816
 20
-1381.44482544
 30
0.0
 11
1585.92682911
 21
-1382.16246194
 31
0.0
  0
LINE
  8
ZUWAKU
  6
CONTINUOUS
 62
       7
  5
2C8
 10
1585.92682911
 20
-1382.16246194
 30
0.0
 11
1587.38214853
 21
-1382.79732377
 31
0.0
  0
LINE
  8
ZUWAKU
  6
CONTINUOUS
 62
       7
  5
2C9
 10
1587.38214853
 20
-1382.79732377
 30
0.0
 11
1588.89262487
 21
-1383.34438536
 31
0.0
  0
LINE
  8
ZUWAKU
  6
CONTINUOUS
 62
       7
  5
2CA
 10
1588.89262487
 20
-1383.34438536
 30
0.0
 11
1590.44656716
 21
-1383.79933375
 31
0.0
  0
LINE
  8
ZUWAKU
  6
CONTINUOUS
 62
       7
  5
2CB
 10
1590.44656716
 20
-1383.79933375
 30
0.0
 11
1592.03193891
 21
-1384.15859989
 31
0.0
  0
LINE
  8
ZUWAKU
  6
CONTINUOUS
 62
       7
  5
2CC
 10
1592.03193891
 20
-1384.15859989
 30
0.0
 11
1593.63645348
 21
-1384.41938484
 31
0.0
  0
LINE
  8
ZUWAKU
  6
CONTINUOUS
 62
       7
  5
2CD
 10
1593.63645348
 20
-1384.41938484
 30
0.0
 11
1595.24767034
 21
-1384.57968106
 31
0.0
  0
LINE
  8
ZUWAKU
  6
CONTINUOUS
 62
       7
  5
2CE
 10
1595.24767034
 20
-1384.57968106
 30
0.0
 11
1596.8530925
 21
-1384.63828879
 31
0.0
  0
LINE
  8
ZUWAKU
  6
CONTINUOUS
 62
       7
  5
2CF
 10
1596.8530925
 20
-1384.63828879
 30
0.0
 11
1598.44026459
 21
-1384.5948274
 31
0.0
  0
LINE
  8
ZUWAKU
  6
CONTINUOUS
 62
       7
  5
2D0
 10
1598.44026459
 20
-1384.5948274
 30
0.0
 11
1599.99687177
 21
-1384.44974162
 31
0.0
  0
LINE
  8
ZUWAKU
  6
CONTINUOUS
 62
       7
  5
2D1
 10
1599.99687177
 20
-1384.44974162
 30
0.0
 11
1601.51083936
 21
-1384.20430231
 31
0.0
  0
LINE
  8
ZUWAKU
  6
CONTINUOUS
 62
       7
  5
2D2
 10
1601.51083936
 20
-1384.20430231
 30
0.0
 11
1602.97043337
 21
-1383.86060131
 31
0.0
  0
LINE
  8
ZUWAKU
  6
CONTINUOUS
 62
       7
  5
2D3
 10
1602.97043337
 20
-1383.86060131
 30
0.0
 11
1604.36436232
 21
-1383.4215394
 31
0.0
  0
LINE
  8
ZUWAKU
  6
CONTINUOUS
 62
       7
  5
2D4
 10
1604.36436232
 20
-1383.4215394
 30
0.0
 11
1605.68188049
 21
-1382.89080563
 31
0.0
  0
LINE
  8
ZUWAKU
  6
CONTINUOUS
 62
       7
  5
2D5
 10
1605.68188049
 20
-1382.89080563
 30
0.0
 11
1606.91289252
 21
-1382.27284567
 31
0.0
  0
LINE
  8
ZUWAKU
  6
CONTINUOUS
 62
       7
  5
2D6
 10
1606.91289252
 20
-1382.27284567
 30
0.0
 11
1608.04805818
 21
-1381.57281534
 31
0.0
  0
LINE
  8
ZUWAKU
  6
CONTINUOUS
 62
       7
  5
2D7
 10
1608.04805818
 20
-1381.57281534
 30
0.0
 11
1609.07889391
 21
-1380.79651499
 31
0.0
  0
LINE
  8
ZUWAKU
  6
CONTINUOUS
 62
       7
  5
2D8
 10
1609.07889391
 20
-1380.79651499
 30
0.0
 11
1609.8057457
 21
-1380.12720901
 31
0.0
  0
LINE
  8
ZUWAKU
  6
CONTINUOUS
 62
       7
  5
2D9
 10
1612.96774686
 20
-1379.24967333
 30
0.0
 11
1613.21841217
 21
-1378.89211249
 31
0.0
  0
LINE
  8
ZUWAKU
  6
CONTINUOUS
 62
       7
  5
2DA
 10
1613.21841217
 20
-1378.89211249
 30
0.0
 11
1613.40579884
 21
-1378.54565561
 31
0.0
  0
LINE
  8
ZUWAKU
  6
CONTINUOUS
 62
       7
  5
2DB
 10
1613.40579884
 20
-1378.54565561
 30
0.0
 11
1614.82134698
 21
-1379.96120375
 31
0.0
  0
LINE
  8
ZUWAKU
  6
CONTINUOUS
 62
       7
  5
2DC
 10
1612.24996187
 20
-1369.70778937
 30
0.0
 11
1612.48346936
 21
-1370.37230605
 31
0.0
  0
LINE
  8
ZUWAKU
  6
CONTINUOUS
 62
       7
  5
2DD
 10
1612.48346936
 20
-1370.37230605
 30
0.0
 11
1612.74931061
 21
-1371.52085635
 31
0.0
  0
LINE
  8
ZUWAKU
  6
CONTINUOUS
 62
       7
  5
2DE
 10
1612.74931061
 20
-1371.52085635
 30
0.0
 11
1612.87796738
 21
-1372.66651449
 31
0.0
  0
LINE
  8
ZUWAKU
  6
CONTINUOUS
 62
       7
  5
2DF
 10
1612.87796738
 20
-1372.66651449
 30
0.0
 11
1612.8689932
 21
-1373.80114809
 31
0.0
  0
LINE
  8
ZUWAKU
  6
CONTINUOUS
 62
       7
  5
2E0
 10
1612.8689932
 20
-1373.80114809
 30
0.0
 11
1612.72275868
 21
-1374.91691933
 31
0.0
  0
LINE
  8
ZUWAKU
  6
CONTINUOUS
 62
       7
  5
2E1
 10
1612.72275868
 20
-1374.91691933
 30
0.0
 11
1612.6847612
 21
-1375.06349326
 31
0.0
  0
LINE
  8
ZUWAKU
  6
CONTINUOUS
 62
       7
  5
2E2
 10
1612.6847612
 20
-1375.06349326
 30
0.0
 11
1608.88911192
 21
-1371.26784398
 31
0.0
  0
LINE
  8
ZUWAKU
  6
CONTINUOUS
 62
       7
  5
2E3
 10
1578.84413043
 20
-1363.0219429
 30
0.0
 11
1579.03463387
 21
-1362.80556391
 31
0.0
  0
LINE
  8
ZUWAKU
  6
CONTINUOUS
 62
       7
  5
2E4
 10
1579.03463387
 20
-1362.80556391
 30
0.0
 11
1579.95360414
 21
-1361.95934973
 31
0.0
  0
LINE
  8
ZUWAKU
  6
CONTINUOUS
 62
       7
  5
2E5
 10
1579.95360414
 20
-1361.95934973
 30
0.0
 11
1580.98443987
 21
-1361.18304938
 31
0.0
  0
LINE
  8
ZUWAKU
  6
CONTINUOUS
 62
       7
  5
2E6
 10
1580.98443987
 20
-1361.18304938
 30
0.0
 11
1582.11960553
 21
-1360.48301905
 31
0.0
  0
LINE
  8
ZUWAKU
  6
CONTINUOUS
 62
       7
  5
2E7
 10
1582.11960553
 20
-1360.48301905
 30
0.0
 11
1583.35061755
 21
-1359.86505909
 31
0.0
  0
LINE
  8
ZUWAKU
  6
CONTINUOUS
 62
       7
  5
2E8
 10
1583.35061755
 20
-1359.86505909
 30
0.0
 11
1584.66813572
 21
-1359.33432532
 31
0.0
  0
LINE
  8
ZUWAKU
  6
CONTINUOUS
 62
       7
  5
2E9
 10
1584.66813572
 20
-1359.33432532
 30
0.0
 11
1586.06206468
 21
-1358.89526341
 31
0.0
  0
LINE
  8
ZUWAKU
  6
CONTINUOUS
 62
       7
  5
2EA
 10
1586.06206468
 20
-1358.89526341
 30
0.0
 11
1587.52165869
 21
-1358.55156241
 31
0.0
  0
LINE
  8
ZUWAKU
  6
CONTINUOUS
 62
       7
  5
2EB
 10
1587.52165869
 20
-1358.55156241
 30
0.0
 11
1589.03562627
 21
-1358.3061231
 31
0.0
  0
LINE
  8
ZUWAKU
  6
CONTINUOUS
 62
       7
  5
2EC
 10
1589.03562627
 20
-1358.3061231
 30
0.0
 11
1590.59223345
 21
-1358.16103732
 31
0.0
  0
LINE
  8
ZUWAKU
  6
CONTINUOUS
 62
       7
  5
2ED
 10
1590.59223345
 20
-1358.16103732
 30
0.0
 11
1592.17940554
 21
-1358.11757593
 31
0.0
  0
LINE
  8
ZUWAKU
  6
CONTINUOUS
 62
       7
  5
2EE
 10
1592.17940554
 20
-1358.11757593
 30
0.0
 11
1593.7848277
 21
-1358.17618366
 31
0.0
  0
LINE
  8
ZUWAKU
  6
CONTINUOUS
 62
       7
  5
2EF
 10
1593.7848277
 20
-1358.17618366
 30
0.0
 11
1595.39604456
 21
-1358.33647988
 31
0.0
  0
LINE
  8
ZUWAKU
  6
CONTINUOUS
 62
       7
  5
2F0
 10
1595.39604456
 20
-1358.33647988
 30
0.0
 11
1597.00055913
 21
-1358.59726482
 31
0.0
  0
LINE
  8
ZUWAKU
  6
CONTINUOUS
 62
       7
  5
2F1
 10
1597.00055913
 20
-1358.59726482
 30
0.0
 11
1598.58593089
 21
-1358.95653097
 31
0.0
  0
LINE
  8
ZUWAKU
  6
CONTINUOUS
 62
       7
  5
2F2
 10
1598.58593089
 20
-1358.95653097
 30
0.0
 11
1600.13987317
 21
-1359.41147936
 31
0.0
  0
LINE
  8
ZUWAKU
  6
CONTINUOUS
 62
       7
  5
2F3
 10
1600.13987317
 20
-1359.41147936
 30
0.0
 11
1601.65034951
 21
-1359.95854095
 31
0.0
  0
LINE
  8
ZUWAKU
  6
CONTINUOUS
 62
       7
  5
2F4
 10
1601.65034951
 20
-1359.95854095
 30
0.0
 11
1603.10566893
 21
-1360.59340277
 31
0.0
  0
LINE
  8
ZUWAKU
  6
CONTINUOUS
 62
       7
  5
2F5
 10
1603.10566893
 20
-1360.59340277
 30
0.0
 11
1604.49457989
 21
-1361.31103928
 31
0.0
  0
LINE
  8
ZUWAKU
  6
CONTINUOUS
 62
       7
  5
2F6
 10
1604.49457989
 20
-1361.31103928
 30
0.0
 11
1605.806363
 21
-1362.10574889
 31
0.0
  0
LINE
  8
ZUWAKU
  6
CONTINUOUS
 62
       7
  5
2F7
 10
1605.806363
 20
-1362.10574889
 30
0.0
 11
1607.03092234
 21
-1362.97119644
 31
0.0
  0
LINE
  8
ZUWAKU
  6
CONTINUOUS
 62
       7
  5
2F8
 10
1607.03092234
 20
-1362.97119644
 30
0.0
 11
1608.15887527
 21
-1363.90046254
 31
0.0
  0
LINE
  8
ZUWAKU
  6
CONTINUOUS
 62
       7
  5
2F9
 10
1608.15887527
 20
-1363.90046254
 30
0.0
 11
1608.25984027
 21
-1363.9977625
 31
0.0
  0
LINE
  8
ZUWAKU
  6
CONTINUOUS
 62
       7
  5
2FA
 10
1585.81205007
 20
-1361.33355736
 30
0.0
 11
1586.77394744
 21
-1361.10705254
 31
0.0
  0
LINE
  8
ZUWAKU
  6
CONTINUOUS
 62
       7
  5
2FB
 10
1586.77394744
 20
-1361.10705254
 30
0.0
 11
1588.33236425
 21
-1360.85440727
 31
0.0
  0
LINE
  8
ZUWAKU
  6
CONTINUOUS
 62
       7
  5
2FC
 10
1588.33236425
 20
-1360.85440727
 30
0.0
 11
1589.93219001
 21
-1360.70529324
 31
0.0
  0
LINE
  8
ZUWAKU
  6
CONTINUOUS
 62
       7
  5
2FD
 10
1589.93219001
 20
-1360.70529324
 30
0.0
 11
1591.56147705
 21
-1360.66067862
 31
0.0
  0
LINE
  8
ZUWAKU
  6
CONTINUOUS
 62
       7
  5
2FE
 10
1591.56147705
 20
-1360.66067862
 30
0.0
 11
1593.20806103
 21
-1360.72078901
 31
0.0
  0
LINE
  8
ZUWAKU
  6
CONTINUOUS
 62
       7
  5
2FF
 10
1593.20806103
 20
-1360.72078901
 30
0.0
 11
1594.85964757
 21
-1360.88510151
 31
0.0
  0
LINE
  8
ZUWAKU
  6
CONTINUOUS
 62
       7
  5
300
 10
1594.85964757
 20
-1360.88510151
 30
0.0
 11
1596.50390177
 21
-1361.15234542
 31
0.0
  0
LINE
  8
ZUWAKU
  6
CONTINUOUS
 62
       7
  5
301
 10
1596.50390177
 20
-1361.15234542
 30
0.0
 11
1598.12853905
 21
-1361.52050965
 31
0.0
  0
LINE
  8
ZUWAKU
  6
CONTINUOUS
 62
       7
  5
302
 10
1598.12853905
 20
-1361.52050965
 30
0.0
 11
1598.97001042
 21
-1361.76686761
 31
0.0
  0
LINE
  8
ZUWAKU
  6
CONTINUOUS
 62
       7
  5
303
 10
1610.16074234
 20
-1366.01430592
 30
0.0
 11
1610.88179438
 21
-1366.99450639
 31
0.0
  0
LINE
  8
ZUWAKU
  6
CONTINUOUS
 62
       7
  5
304
 10
1610.88179438
 20
-1366.99450639
 30
0.0
 11
1611.44394158
 21
-1367.929434
 31
0.0
  0
ARC
  8
ZUWAKU
  6
CONTINUOUS
 62
       7
  5
305
 10
1608.3297992
 20
-1371.16871871
 30
0.0
 40
1.62700834
 50
114.9
 51
225.0
  0
LINE
  8
ZUWAKU
  6
CONTINUOUS
 62
       7
  5
306
 10
1607.17933057
 20
-1372.31918734
 30
0.0
 11
1612.02364919
 21
-1377.06160057
 31
0.0
  0
LINE
  8
ZUWAKU
  6
CONTINUOUS
 62
       7
  5
307
 10
1612.02364919
 20
-1377.06160057
 30
0.0
 11
1611.47518961
 21
-1378.07564064
 31
0.0
  0
LINE
  8
ZUWAKU
  6
CONTINUOUS
 62
       7
  5
308
 10
1611.47518961
 20
-1378.07564064
 30
0.0
 11
1611.14315079
 21
-1378.54927652
 31
0.0
  0
LINE
  8
ZUWAKU
  6
CONTINUOUS
 62
       7
  5
309
 10
1577.11988606
 20
-1365.48896883
 30
0.0
 11
1577.42313927
 21
-1364.92828777
 31
0.0
  0
LINE
  8
ZUWAKU
  6
CONTINUOUS
 62
       7
  5
30A
 10
1606.73268359
 20
-1370.85827088
 30
0.0
 11
1606.26157503
 21
-1373.2819143
 31
0.0
  0
ARC
  8
ZUWAKU
  6
CONTINUOUS
 62
       7
  5
30B
 10
1607.85869065
 20
-1373.59236213
 30
0.0
 40
1.62700834
 50
169.0
 51
225.0
  0
LINE
  8
ZUWAKU
  6
CONTINUOUS
 62
       7
  5
30C
 10
1606.70822202
 20
-1374.74283076
 30
0.0
 11
1608.15167598
 21
-1376.18628472
 31
0.0
  0
ARC
  8
ZUWAKU
  6
CONTINUOUS
 62
       7
  5
30D
 10
1607.73750727
 20
-1376.60045342
 30
0.0
 40
0.585723
 50
248.95117018
 51
405.0
  0
LINE
  8
ZUWAKU
  6
CONTINUOUS
 62
       7
  5
30E
 10
1614.32048262
 20
-1375.22748541
 30
0.0
 11
1614.48236339
 21
-1373.99233314
 31
0.0
  0
LINE
  8
ZUWAKU
  6
CONTINUOUS
 62
       7
  5
30F
 10
1614.48236339
 20
-1373.99233314
 30
0.0
 11
1614.49228998
 21
-1372.73728369
 31
0.0
  0
LINE
  8
ZUWAKU
  6
CONTINUOUS
 62
       7
  5
310
 10
1614.49228998
 20
-1372.73728369
 30
0.0
 11
1614.35018683
 21
-1371.47188877
 31
0.0
  0
LINE
  8
ZUWAKU
  6
CONTINUOUS
 62
       7
  5
311
 10
1614.35018683
 20
-1371.47188877
 30
0.0
 11
1614.05713544
 21
-1370.20577878
 31
0.0
  0
LINE
  8
ZUWAKU
  6
CONTINUOUS
 62
       7
  5
312
 10
1614.05713544
 20
-1370.20577878
 30
0.0
 11
1613.6153661
 21
-1368.94858959
 31
0.0
  0
LINE
  8
ZUWAKU
  6
CONTINUOUS
 62
       7
  5
313
 10
1613.6153661
 20
-1368.94858959
 30
0.0
 11
1613.52470827
 21
-1368.7573222
 31
0.0
  0
LINE
  8
ZUWAKU
  6
CONTINUOUS
 62
       7
  5
314
 10
1610.62415242
 20
-1364.40177548
 30
0.0
 11
1610.44473342
 21
-1364.19786063
 31
0.0
  0
LINE
  8
ZUWAKU
  6
CONTINUOUS
 62
       7
  5
315
 10
1610.44473342
 20
-1364.19786063
 30
0.0
 11
1609.33137249
 21
-1363.12491476
 31
0.0
  0
LINE
  8
ZUWAKU
  6
CONTINUOUS
 62
       7
  5
316
 10
1609.33137249
 20
-1363.12491476
 30
0.0
 11
1608.10525953
 21
-1362.11477935
 31
0.0
  0
LINE
  8
ZUWAKU
  6
CONTINUOUS
 62
       7
  5
317
 10
1608.10525953
 20
-1362.11477935
 30
0.0
 11
1606.775726
 21
-1361.17514212
 31
0.0
  0
LINE
  8
ZUWAKU
  6
CONTINUOUS
 62
       7
  5
318
 10
1606.775726
 20
-1361.17514212
 30
0.0
 11
1605.35289044
 21
-1360.31315428
 31
0.0
  0
LINE
  8
ZUWAKU
  6
CONTINUOUS
 62
       7
  5
319
 10
1605.35289044
 20
-1360.31315428
 30
0.0
 11
1603.8475815
 21
-1359.53537609
 31
0.0
  0
LINE
  8
ZUWAKU
  6
CONTINUOUS
 62
       7
  5
31A
 10
1603.8475815
 20
-1359.53537609
 30
0.0
 11
1602.27125548
 21
-1358.84772691
 31
0.0
  0
LINE
  8
ZUWAKU
  6
CONTINUOUS
 62
       7
  5
31B
 10
1602.27125548
 20
-1358.84772691
 30
0.0
 11
1600.63590918
 21
-1358.25544015
 31
0.0
  0
LINE
  8
ZUWAKU
  6
CONTINUOUS
 62
       7
  5
31C
 10
1600.63590918
 20
-1358.25544015
 30
0.0
 11
1598.95398857
 21
-1357.76302348
 31
0.0
  0
LINE
  8
ZUWAKU
  6
CONTINUOUS
 62
       7
  5
31D
 10
1598.95398857
 20
-1357.76302348
 30
0.0
 11
1597.23829409
 21
-1357.37422449
 31
0.0
  0
LINE
  8
ZUWAKU
  6
CONTINUOUS
 62
       7
  5
31E
 10
1597.23829409
 20
-1357.37422449
 30
0.0
 11
1595.50188319
 21
-1357.09200217
 31
0.0
  0
LINE
  8
ZUWAKU
  6
CONTINUOUS
 62
       7
  5
31F
 10
1595.50188319
 20
-1357.09200217
 30
0.0
 11
1593.75797103
 21
-1356.9185044
 31
0.0
  0
LINE
  8
ZUWAKU
  6
CONTINUOUS
 62
       7
  5
320
 10
1593.75797103
 20
-1356.9185044
 30
0.0
 11
1592.01982982
 21
-1356.85505162
 31
0.0
  0
LINE
  8
ZUWAKU
  6
CONTINUOUS
 62
       7
  5
321
 10
1592.01982982
 20
-1356.85505162
 30
0.0
 11
1590.30068787
 21
-1356.90212672
 31
0.0
  0
LINE
  8
ZUWAKU
  6
CONTINUOUS
 62
       7
  5
322
 10
1590.30068787
 20
-1356.90212672
 30
0.0
 11
1588.61362888
 21
-1357.05937145
 31
0.0
  0
LINE
  8
ZUWAKU
  6
CONTINUOUS
 62
       7
  5
323
 10
1588.61362888
 20
-1357.05937145
 30
0.0
 11
1586.9714924
 21
-1357.32558907
 31
0.0
  0
LINE
  8
ZUWAKU
  6
CONTINUOUS
 62
       7
  5
324
 10
1586.9714924
 20
-1357.32558907
 30
0.0
 11
1585.38677607
 21
-1357.69875351
 31
0.0
  0
LINE
  8
ZUWAKU
  6
CONTINUOUS
 62
       7
  5
325
 10
1585.38677607
 20
-1357.69875351
 30
0.0
 11
1583.87154054
 21
-1358.17602476
 31
0.0
  0
LINE
  8
ZUWAKU
  6
CONTINUOUS
 62
       7
  5
326
 10
1583.87154054
 20
-1358.17602476
 30
0.0
 11
1582.43731767
 21
-1358.7537705
 31
0.0
  0
LINE
  8
ZUWAKU
  6
CONTINUOUS
 62
       7
  5
327
 10
1582.43731767
 20
-1358.7537705
 30
0.0
 11
1581.09502276
 21
-1359.42759373
 31
0.0
  0
LINE
  8
ZUWAKU
  6
CONTINUOUS
 62
       7
  5
328
 10
1581.09502276
 20
-1359.42759373
 30
0.0
 11
1579.85487149
 21
-1360.19236625
 31
0.0
  0
LINE
  8
ZUWAKU
  6
CONTINUOUS
 62
       7
  5
329
 10
1579.85487149
 20
-1360.19236625
 30
0.0
 11
1578.72630216
 21
-1361.04226769
 31
0.0
  0
LINE
  8
ZUWAKU
  6
CONTINUOUS
 62
       7
  5
32A
 10
1578.72630216
 20
-1361.04226769
 30
0.0
 11
1577.71790385
 21
-1361.97082978
 31
0.0
  0
LINE
  8
ZUWAKU
  6
CONTINUOUS
 62
       7
  5
32B
 10
1577.71790385
 20
-1361.97082978
 30
0.0
 11
1576.83735109
 21
-1362.97098559
 31
0.0
  0
LINE
  8
ZUWAKU
  6
CONTINUOUS
 62
       7
  5
32C
 10
1576.83735109
 20
-1362.97098559
 30
0.0
 11
1576.62499027
 21
-1363.27390711
 31
0.0
  0
LINE
  8
ZUWAKU
  6
CONTINUOUS
 62
       7
  5
32D
 10
1575.81324412
 20
-1364.54930138
 30
0.0
 11
1575.4855644
 21
-1365.15514432
 31
0.0
  0
LINE
  8
ZUWAKU
  6
CONTINUOUS
 62
       7
  5
32E
 10
1575.4855644
 20
-1365.15514432
 30
0.0
 11
1575.46669907
 21
-1365.20292217
 31
0.0
  0
LINE
  8
ZUWAKU
  6
CONTINUOUS
 62
       7
  5
32F
 10
1574.9998836
 20
-1366.41793797
 30
0.0
 11
1574.71201542
 21
-1367.52837931
 31
0.0
  0
LINE
  8
ZUWAKU
  6
CONTINUOUS
 62
       7
  5
330
 10
1574.71201542
 20
-1367.52837931
 30
0.0
 11
1574.55013465
 21
-1368.76353158
 31
0.0
  0
LINE
  8
ZUWAKU
  6
CONTINUOUS
 62
       7
  5
331
 10
1574.55013465
 20
-1368.76353158
 30
0.0
 11
1574.54020807
 21
-1370.01858102
 31
0.0
  0
LINE
  8
ZUWAKU
  6
CONTINUOUS
 62
       7
  5
332
 10
1574.54020807
 20
-1370.01858102
 30
0.0
 11
1574.68231122
 21
-1371.28397595
 31
0.0
  0
LINE
  8
ZUWAKU
  6
CONTINUOUS
 62
       7
  5
333
 10
1574.68231122
 20
-1371.28397595
 30
0.0
 11
1574.97536261
 21
-1372.55008594
 31
0.0
  0
LINE
  8
ZUWAKU
  6
CONTINUOUS
 62
       7
  5
334
 10
1574.97536261
 20
-1372.55008594
 30
0.0
 11
1575.41713194
 21
-1373.80727513
 31
0.0
  0
LINE
  8
ZUWAKU
  6
CONTINUOUS
 62
       7
  5
335
 10
1575.41713194
 20
-1373.80727513
 30
0.0
 11
1576.00425709
 21
-1375.04597556
 31
0.0
  0
LINE
  8
ZUWAKU
  6
CONTINUOUS
 62
       7
  5
336
 10
1576.00425709
 20
-1375.04597556
 30
0.0
 11
1576.73226968
 21
-1376.25675997
 31
0.0
  0
LINE
  8
ZUWAKU
  6
CONTINUOUS
 62
       7
  5
337
 10
1576.73226968
 20
-1376.25675997
 30
0.0
 11
1577.59562908
 21
-1377.43041355
 31
0.0
  0
LINE
  8
ZUWAKU
  6
CONTINUOUS
 62
       7
  5
338
 10
1577.59562908
 20
-1377.43041355
 30
0.0
 11
1578.58776462
 21
-1378.55800409
 31
0.0
  0
LINE
  8
ZUWAKU
  6
CONTINUOUS
 62
       7
  5
339
 10
1578.58776462
 20
-1378.55800409
 30
0.0
 11
1579.70112555
 21
-1379.63094996
 31
0.0
  0
LINE
  8
ZUWAKU
  6
CONTINUOUS
 62
       7
  5
33A
 10
1579.70112555
 20
-1379.63094996
 30
0.0
 11
1580.92723851
 21
-1380.64108537
 31
0.0
  0
LINE
  8
ZUWAKU
  6
CONTINUOUS
 62
       7
  5
33B
 10
1580.92723851
 20
-1380.64108537
 30
0.0
 11
1582.25677205
 21
-1381.5807226
 31
0.0
  0
LINE
  8
ZUWAKU
  6
CONTINUOUS
 62
       7
  5
33C
 10
1582.25677205
 20
-1381.5807226
 30
0.0
 11
1583.6796076
 21
-1382.44271043
 31
0.0
  0
LINE
  8
ZUWAKU
  6
CONTINUOUS
 62
       7
  5
33D
 10
1583.6796076
 20
-1382.44271043
 30
0.0
 11
1585.18491655
 21
-1383.22048863
 31
0.0
  0
LINE
  8
ZUWAKU
  6
CONTINUOUS
 62
       7
  5
33E
 10
1585.18491655
 20
-1383.22048863
 30
0.0
 11
1586.76124256
 21
-1383.90813781
 31
0.0
  0
LINE
  8
ZUWAKU
  6
CONTINUOUS
 62
       7
  5
33F
 10
1586.76124256
 20
-1383.90813781
 30
0.0
 11
1588.39658886
 21
-1384.50042457
 31
0.0
  0
LINE
  8
ZUWAKU
  6
CONTINUOUS
 62
       7
  5
340
 10
1588.39658886
 20
-1384.50042457
 30
0.0
 11
1590.07850947
 21
-1384.99284124
 31
0.0
  0
LINE
  8
ZUWAKU
  6
CONTINUOUS
 62
       7
  5
341
 10
1590.07850947
 20
-1384.99284124
 30
0.0
 11
1591.79420396
 21
-1385.38164023
 31
0.0
  0
LINE
  8
ZUWAKU
  6
CONTINUOUS
 62
       7
  5
342
 10
1591.79420396
 20
-1385.38164023
 30
0.0
 11
1593.53061485
 21
-1385.66386255
 31
0.0
  0
LINE
  8
ZUWAKU
  6
CONTINUOUS
 62
       7
  5
343
 10
1593.53061485
 20
-1385.66386255
 30
0.0
 11
1595.27452701
 21
-1385.83736032
 31
0.0
  0
LINE
  8
ZUWAKU
  6
CONTINUOUS
 62
       7
  5
344
 10
1595.27452701
 20
-1385.83736032
 30
0.0
 11
1597.01266822
 21
-1385.9008131
 31
0.0
  0
LINE
  8
ZUWAKU
  6
CONTINUOUS
 62
       7
  5
345
 10
1597.01266822
 20
-1385.9008131
 30
0.0
 11
1598.73181017
 21
-1385.853738
 31
0.0
  0
LINE
  8
ZUWAKU
  6
CONTINUOUS
 62
       7
  5
346
 10
1598.73181017
 20
-1385.853738
 30
0.0
 11
1600.41886916
 21
-1385.69649327
 31
0.0
  0
LINE
  8
ZUWAKU
  6
CONTINUOUS
 62
       7
  5
347
 10
1600.41886916
 20
-1385.69649327
 30
0.0
 11
1602.06100564
 21
-1385.43027565
 31
0.0
  0
LINE
  8
ZUWAKU
  6
CONTINUOUS
 62
       7
  5
348
 10
1602.06100564
 20
-1385.43027565
 30
0.0
 11
1603.64572197
 21
-1385.05711121
 31
0.0
  0
LINE
  8
ZUWAKU
  6
CONTINUOUS
 62
       7
  5
349
 10
1603.64572197
 20
-1385.05711121
 30
0.0
 11
1605.1609575
 21
-1384.57983996
 31
0.0
  0
LINE
  8
ZUWAKU
  6
CONTINUOUS
 62
       7
  5
34A
 10
1605.1609575
 20
-1384.57983996
 30
0.0
 11
1606.59518037
 21
-1384.00209422
 31
0.0
  0
LINE
  8
ZUWAKU
  6
CONTINUOUS
 62
       7
  5
34B
 10
1606.59518037
 20
-1384.00209422
 30
0.0
 11
1607.93747528
 21
-1383.32827099
 31
0.0
  0
LINE
  8
ZUWAKU
  6
CONTINUOUS
 62
       7
  5
34C
 10
1607.93747528
 20
-1383.32827099
 30
0.0
 11
1609.17762655
 21
-1382.56349847
 31
0.0
  0
LINE
  8
ZUWAKU
  6
CONTINUOUS
 62
       7
  5
34D
 10
1609.17762655
 20
-1382.56349847
 30
0.0
 11
1610.30619589
 21
-1381.71359703
 31
0.0
  0
LINE
  8
ZUWAKU
  6
CONTINUOUS
 62
       7
  5
34E
 10
1610.30619589
 20
-1381.71359703
 30
0.0
 11
1611.31459419
 21
-1380.78503494
 31
0.0
  0
LINE
  8
ZUWAKU
  6
CONTINUOUS
 62
       7
  5
34F
 10
1611.31459419
 20
-1380.78503494
 30
0.0
 11
1611.59569446
 21
-1380.46575359
 31
0.0
  0
LINE
  8
ZUWAKU
  6
CONTINUOUS
 62
       7
  5
350
 10
1612.46207714
 20
-1379.40411728
 30
0.0
 11
1612.94115262
 21
-1378.72074137
 31
0.0
  0
LINE
  8
ZUWAKU
  6
CONTINUOUS
 62
       7
  5
351
 10
1612.94115262
 20
-1378.72074137
 30
0.0
 11
1613.32723997
 21
-1378.00690929
 31
0.0
  0
LINE
  8
ZUWAKU
  6
CONTINUOUS
 62
       7
  5
352
 10
1613.89083786
 20
-1376.72975737
 30
0.0
 11
1614.00787967
 21
-1376.43334026
 31
0.0
  0
LINE
  8
ZUWAKU
  6
CONTINUOUS
 62
       7
  5
353
 10
1614.00787967
 20
-1376.43334026
 30
0.0
 11
1614.32048262
 21
-1375.22748541
 31
0.0
  0
LINE
  8
ZUWAKU
  6
CONTINUOUS
 62
       7
  5
354
 10
1613.04279013
 20
-1374.97912715
 30
0.0
 11
1613.19422698
 21
-1373.82366212
 31
0.0
  0
LINE
  8
ZUWAKU
  6
CONTINUOUS
 62
       7
  5
355
 10
1613.19422698
 20
-1373.82366212
 30
0.0
 11
1613.20351314
 21
-1372.64958361
 31
0.0
  0
LINE
  8
ZUWAKU
  6
CONTINUOUS
 62
       7
  5
356
 10
1613.20351314
 20
-1372.64958361
 30
0.0
 11
1613.07057794
 21
-1371.46582707
 31
0.0
  0
LINE
  8
ZUWAKU
  6
CONTINUOUS
 62
       7
  5
357
 10
1613.07057794
 20
-1371.46582707
 30
0.0
 11
1612.79643309
 21
-1370.28140159
 31
0.0
  0
LINE
  8
ZUWAKU
  6
CONTINUOUS
 62
       7
  5
358
 10
1612.79643309
 20
-1370.28140159
 30
0.0
 11
1612.43811611
 21
-1369.26170149
 31
0.0
  0
LINE
  8
ZUWAKU
  6
CONTINUOUS
 62
       7
  5
359
 10
1611.89293092
 20
-1368.07103904
 30
0.0
 11
1611.83391889
 21
-1367.94653711
 31
0.0
  0
LINE
  8
ZUWAKU
  6
CONTINUOUS
 62
       7
  5
35A
 10
1611.83391889
 20
-1367.94653711
 30
0.0
 11
1611.15287486
 21
-1366.81386782
 31
0.0
  0
LINE
  8
ZUWAKU
  6
CONTINUOUS
 62
       7
  5
35B
 10
1611.15287486
 20
-1366.81386782
 30
0.0
 11
1610.32931463
 21
-1365.69431737
 31
0.0
  0
LINE
  8
ZUWAKU
  6
CONTINUOUS
 62
       7
  5
35C
 10
1609.09538109
 20
-1364.35106091
 30
0.0
 11
1608.37555808
 21
-1363.65736751
 31
0.0
  0
LINE
  8
ZUWAKU
  6
CONTINUOUS
 62
       7
  5
35D
 10
1608.37555808
 20
-1363.65736751
 30
0.0
 11
1607.22854918
 21
-1362.71240212
 31
0.0
  0
LINE
  8
ZUWAKU
  6
CONTINUOUS
 62
       7
  5
35E
 10
1607.22854918
 20
-1362.71240212
 30
0.0
 11
1605.984792
 21
-1361.83338665
 31
0.0
  0
LINE
  8
ZUWAKU
  6
CONTINUOUS
 62
       7
  5
35F
 10
1605.984792
 20
-1361.83338665
 30
0.0
 11
1604.65375228
 21
-1361.02701093
 31
0.0
  0
LINE
  8
ZUWAKU
  6
CONTINUOUS
 62
       7
  5
360
 10
1604.65375228
 20
-1361.02701093
 30
0.0
 11
1603.24556005
 21
-1360.29941198
 31
0.0
  0
LINE
  8
ZUWAKU
  6
CONTINUOUS
 62
       7
  5
361
 10
1603.24556005
 20
-1360.29941198
 30
0.0
 11
1601.77093248
 21
-1359.65612726
 31
0.0
  0
LINE
  8
ZUWAKU
  6
CONTINUOUS
 62
       7
  5
362
 10
1601.77093248
 20
-1359.65612726
 30
0.0
 11
1600.2410924
 21
-1359.10205255
 31
0.0
  0
LINE
  8
ZUWAKU
  6
CONTINUOUS
 62
       7
  5
363
 10
1600.2410924
 20
-1359.10205255
 30
0.0
 11
1598.66768279
 21
-1358.6414047
 31
0.0
  0
LINE
  8
ZUWAKU
  6
CONTINUOUS
 62
       7
  5
364
 10
1598.66768279
 20
-1358.6414047
 30
0.0
 11
1597.06267828
 21
-1358.27768951
 31
0.0
  0
LINE
  8
ZUWAKU
  6
CONTINUOUS
 62
       7
  5
365
 10
1597.06267828
 20
-1358.27768951
 30
0.0
 11
1595.43829389
 21
-1358.01367508
 31
0.0
  0
LINE
  8
ZUWAKU
  6
CONTINUOUS
 62
       7
  5
366
 10
1595.43829389
 20
-1358.01367508
 30
0.0
 11
1593.80689219
 21
-1357.85137072
 31
0.0
  0
LINE
  8
ZUWAKU
  6
CONTINUOUS
 62
       7
  5
367
 10
1593.80689219
 20
-1357.85137072
 30
0.0
 11
1592.18088912
 21
-1357.79201166
 31
0.0
  0
LINE
  8
ZUWAKU
  6
CONTINUOUS
 62
       7
  5
368
 10
1592.18088912
 20
-1357.79201166
 30
0.0
 11
1590.57265956
 21
-1357.83604967
 31
0.0
  0
LINE
  8
ZUWAKU
  6
CONTINUOUS
 62
       7
  5
369
 10
1590.57265956
 20
-1357.83604967
 30
0.0
 11
1588.99444309
 21
-1357.98314957
 31
0.0
  0
LINE
  8
ZUWAKU
  6
CONTINUOUS
 62
       7
  5
36A
 10
1588.99444309
 20
-1357.98314957
 30
0.0
 11
1587.45825089
 21
-1358.23219186
 31
0.0
  0
LINE
  8
ZUWAKU
  6
CONTINUOUS
 62
       7
  5
36B
 10
1587.45825089
 20
-1358.23219186
 30
0.0
 11
1585.97577432
 21
-1358.58128118
 31
0.0
  0
LINE
  8
ZUWAKU
  6
CONTINUOUS
 62
       7
  5
36C
 10
1585.97577432
 20
-1358.58128118
 30
0.0
 11
1584.55829593
 21
-1359.02776073
 31
0.0
  0
LINE
  8
ZUWAKU
  6
CONTINUOUS
 62
       7
  5
36D
 10
1584.55829593
 20
-1359.02776073
 30
0.0
 11
1583.21660357
 21
-1359.56823255
 31
0.0
  0
LINE
  8
ZUWAKU
  6
CONTINUOUS
 62
       7
  5
36E
 10
1583.21660357
 20
-1359.56823255
 30
0.0
 11
1581.96090833
 21
-1360.19858332
 31
0.0
  0
LINE
  8
ZUWAKU
  6
CONTINUOUS
 62
       7
  5
36F
 10
1581.96090833
 20
-1360.19858332
 30
0.0
 11
1580.80076682
 21
-1360.91401568
 31
0.0
  0
LINE
  8
ZUWAKU
  6
CONTINUOUS
 62
       7
  5
370
 10
1580.80076682
 20
-1360.91401568
 30
0.0
 11
1579.74500841
 21
-1361.70908476
 31
0.0
  0
LINE
  8
ZUWAKU
  6
CONTINUOUS
 62
       7
  5
371
 10
1579.74500841
 20
-1361.70908476
 30
0.0
 11
1578.80166805
 21
-1362.57773962
 31
0.0
  0
LINE
  8
ZUWAKU
  6
CONTINUOUS
 62
       7
  5
372
 10
1578.80166805
 20
-1362.57773962
 30
0.0
 11
1578.14437559
 21
-1363.32431031
 31
0.0
  0
LINE
  8
ZUWAKU
  6
CONTINUOUS
 62
       7
  5
373
 10
1577.23270326
 20
-1364.59638969
 30
0.0
 11
1576.7133505
 21
-1365.55661451
 31
0.0
  0
LINE
  8
ZUWAKU
  6
CONTINUOUS
 62
       7
  5
374
 10
1576.7133505
 20
-1365.55661451
 30
0.0
 11
1576.67054065
 21
-1365.66503366
 31
0.0
  0
LINE
  8
ZUWAKU
  6
CONTINUOUS
 62
       7
  5
375
 10
1576.22049447
 20
-1366.88648658
 30
0.0
 11
1575.98970791
 21
-1367.77673757
 31
0.0
  0
LINE
  8
ZUWAKU
  6
CONTINUOUS
 62
       7
  5
376
 10
1575.98970791
 20
-1367.77673757
 30
0.0
 11
1575.83827106
 21
-1368.9322026
 31
0.0
  0
LINE
  8
ZUWAKU
  6
CONTINUOUS
 62
       7
  5
377
 10
1575.83827106
 20
-1368.9322026
 30
0.0
 11
1575.8289849
 21
-1370.10628111
 31
0.0
  0
LINE
  8
ZUWAKU
  6
CONTINUOUS
 62
       7
  5
378
 10
1575.8289849
 20
-1370.10628111
 30
0.0
 11
1575.96192011
 21
-1371.29003765
 31
0.0
  0
LINE
  8
ZUWAKU
  6
CONTINUOUS
 62
       7
  5
379
 10
1575.96192011
 20
-1371.29003765
 30
0.0
 11
1576.23606496
 21
-1372.47446313
 31
0.0
  0
LINE
  8
ZUWAKU
  6
CONTINUOUS
 62
       7
  5
37A
 10
1576.23606496
 20
-1372.47446313
 30
0.0
 11
1576.64933304
 21
-1373.65054334
 31
0.0
  0
LINE
  8
ZUWAKU
  6
CONTINUOUS
 62
       7
  5
37B
 10
1576.64933304
 20
-1373.65054334
 30
0.0
 11
1577.19857915
 21
-1374.80932761
 31
0.0
  0
LINE
  8
ZUWAKU
  6
CONTINUOUS
 62
       7
  5
37C
 10
1577.19857915
 20
-1374.80932761
 30
0.0
 11
1577.87962318
 21
-1375.9419969
 31
0.0
  0
LINE
  8
ZUWAKU
  6
CONTINUOUS
 62
       7
  5
37D
 10
1577.87962318
 20
-1375.9419969
 30
0.0
 11
1578.68728198
 21
-1377.03993089
 31
0.0
  0
LINE
  8
ZUWAKU
  6
CONTINUOUS
 62
       7
  5
37E
 10
1578.68728198
 20
-1377.03993089
 30
0.0
 11
1579.61540878
 21
-1378.09477366
 31
0.0
  0
LINE
  8
ZUWAKU
  6
CONTINUOUS
 62
       7
  5
37F
 10
1579.61540878
 20
-1378.09477366
 30
0.0
 11
1580.65693997
 21
-1379.09849721
 31
0.0
  0
LINE
  8
ZUWAKU
  6
CONTINUOUS
 62
       7
  5
380
 10
1580.65693997
 20
-1379.09849721
 30
0.0
 11
1581.80394887
 21
-1380.0434626
 31
0.0
  0
LINE
  8
ZUWAKU
  6
CONTINUOUS
 62
       7
  5
381
 10
1581.80394887
 20
-1380.0434626
 30
0.0
 11
1583.04770604
 21
-1380.92247807
 31
0.0
  0
LINE
  8
ZUWAKU
  6
CONTINUOUS
 62
       7
  5
382
 10
1583.04770604
 20
-1380.92247807
 30
0.0
 11
1584.37874576
 21
-1381.72885378
 31
0.0
  0
LINE
  8
ZUWAKU
  6
CONTINUOUS
 62
       7
  5
383
 10
1584.37874576
 20
-1381.72885378
 30
0.0
 11
1585.786938
 21
-1382.45645274
 31
0.0
  0
LINE
  8
ZUWAKU
  6
CONTINUOUS
 62
       7
  5
384
 10
1585.786938
 20
-1382.45645274
 30
0.0
 11
1587.26156556
 21
-1383.09973746
 31
0.0
  0
LINE
  8
ZUWAKU
  6
CONTINUOUS
 62
       7
  5
385
 10
1587.26156556
 20
-1383.09973746
 30
0.0
 11
1588.79140565
 21
-1383.65381217
 31
0.0
  0
LINE
  8
ZUWAKU
  6
CONTINUOUS
 62
       7
  5
386
 10
1588.79140565
 20
-1383.65381217
 30
0.0
 11
1590.36481525
 21
-1384.11446002
 31
0.0
  0
LINE
  8
ZUWAKU
  6
CONTINUOUS
 62
       7
  5
387
 10
1590.36481525
 20
-1384.11446002
 30
0.0
 11
1591.96981977
 21
-1384.47817521
 31
0.0
  0
LINE
  8
ZUWAKU
  6
CONTINUOUS
 62
       7
  5
388
 10
1591.96981977
 20
-1384.47817521
 30
0.0
 11
1593.59420415
 21
-1384.74218964
 31
0.0
  0
LINE
  8
ZUWAKU
  6
CONTINUOUS
 62
       7
  5
389
 10
1593.59420415
 20
-1384.74218964
 30
0.0
 11
1595.22560585
 21
-1384.904494
 31
0.0
  0
LINE
  8
ZUWAKU
  6
CONTINUOUS
 62
       7
  5
38A
 10
1595.22560585
 20
-1384.904494
 30
0.0
 11
1596.85160892
 21
-1384.96385305
 31
0.0
  0
LINE
  8
ZUWAKU
  6
CONTINUOUS
 62
       7
  5
38B
 10
1596.85160892
 20
-1384.96385305
 30
0.0
 11
1598.45983849
 21
-1384.91981505
 31
0.0
  0
LINE
  8
ZUWAKU
  6
CONTINUOUS
 62
       7
  5
38C
 10
1598.45983849
 20
-1384.91981505
 30
0.0
 11
1600.03805496
 21
-1384.77271515
 31
0.0
  0
LINE
  8
ZUWAKU
  6
CONTINUOUS
 62
       7
  5
38D
 10
1600.03805496
 20
-1384.77271515
 30
0.0
 11
1601.57424715
 21
-1384.52367286
 31
0.0
  0
LINE
  8
ZUWAKU
  6
CONTINUOUS
 62
       7
  5
38E
 10
1601.57424715
 20
-1384.52367286
 30
0.0
 11
1603.05672372
 21
-1384.17458354
 31
0.0
  0
LINE
  8
ZUWAKU
  6
CONTINUOUS
 62
       7
  5
38F
 10
1603.05672372
 20
-1384.17458354
 30
0.0
 11
1604.47420211
 21
-1383.72810399
 31
0.0
  0
LINE
  8
ZUWAKU
  6
CONTINUOUS
 62
       7
  5
390
 10
1604.47420211
 20
-1383.72810399
 30
0.0
 11
1605.81589448
 21
-1383.18763217
 31
0.0
  0
LINE
  8
ZUWAKU
  6
CONTINUOUS
 62
       7
  5
391
 10
1605.81589448
 20
-1383.18763217
 30
0.0
 11
1607.07158971
 21
-1382.5572814
 31
0.0
  0
LINE
  8
ZUWAKU
  6
CONTINUOUS
 62
       7
  5
392
 10
1607.07158971
 20
-1382.5572814
 30
0.0
 11
1608.23173123
 21
-1381.84184904
 31
0.0
  0
LINE
  8
ZUWAKU
  6
CONTINUOUS
 62
       7
  5
393
 10
1608.23173123
 20
-1381.84184904
 30
0.0
 11
1609.28748964
 21
-1381.04677995
 31
0.0
  0
LINE
  8
ZUWAKU
  6
CONTINUOUS
 62
       7
  5
394
 10
1609.28748964
 20
-1381.04677995
 30
0.0
 11
1610.23082999
 21
-1380.1781251
 31
0.0
  0
LINE
  8
ZUWAKU
  6
CONTINUOUS
 62
       7
  5
395
 10
1610.23082999
 20
-1380.1781251
 30
0.0
 11
1610.38631807
 21
-1380.00151749
 31
0.0
  0
LINE
  8
ZUWAKU
  6
CONTINUOUS
 62
       7
  5
396
 10
1611.263746
 20
-1378.94412105
 30
0.0
 11
1611.75244916
 21
-1378.24701176
 31
0.0
  0
LINE
  8
ZUWAKU
  6
CONTINUOUS
 62
       7
  5
397
 10
1611.75244916
 20
-1378.24701176
 30
0.0
 11
1612.31914754
 21
-1377.1992502
 31
0.0
  0
LINE
  8
ZUWAKU
  6
CONTINUOUS
 62
       7
  5
398
 10
1612.31914754
 20
-1377.1992502
 30
0.0
 11
1612.37588615
 21
-1377.05555546
 31
0.0
  0
LINE
  8
ZUWAKU
  6
CONTINUOUS
 62
       7
  5
399
 10
1612.85697664
 20
-1375.69589614
 30
0.0
 11
1613.04279013
 21
-1374.97912715
 31
0.0
  0
LINE
  8
ZUWAKU
  6
CONTINUOUS
 62
       7
  5
39A
 10
1574.09111977
 20
-1370.72261054
 30
0.0
 11
1573.929239
 21
-1371.95776281
 31
0.0
  0
LINE
  8
ZUWAKU
  6
CONTINUOUS
 62
       7
  5
39B
 10
1573.929239
 20
-1371.95776281
 30
0.0
 11
1573.91931241
 21
-1373.21281225
 31
0.0
  0
LINE
  8
ZUWAKU
  6
CONTINUOUS
 62
       7
  5
39C
 10
1573.91931241
 20
-1373.21281225
 30
0.0
 11
1574.06141556
 21
-1374.47820717
 31
0.0
  0
LINE
  8
ZUWAKU
  6
CONTINUOUS
 62
       7
  5
39D
 10
1574.06141556
 20
-1374.47820717
 30
0.0
 11
1574.35446695
 21
-1375.74431717
 31
0.0
  0
LINE
  8
ZUWAKU
  6
CONTINUOUS
 62
       7
  5
39E
 10
1574.35446695
 20
-1375.74431717
 30
0.0
 11
1574.79623629
 21
-1377.00150636
 31
0.0
  0
LINE
  8
ZUWAKU
  6
CONTINUOUS
 62
       7
  5
39F
 10
1574.79623629
 20
-1377.00150636
 30
0.0
 11
1575.38336144
 21
-1378.24020679
 31
0.0
  0
LINE
  8
ZUWAKU
  6
CONTINUOUS
 62
       7
  5
3A0
 10
1575.38336144
 20
-1378.24020679
 30
0.0
 11
1576.11137402
 21
-1379.45099119
 31
0.0
  0
LINE
  8
ZUWAKU
  6
CONTINUOUS
 62
       7
  5
3A1
 10
1576.11137402
 20
-1379.45099119
 30
0.0
 11
1576.97473343
 21
-1380.62464477
 31
0.0
  0
LINE
  8
ZUWAKU
  6
CONTINUOUS
 62
       7
  5
3A2
 10
1576.97473343
 20
-1380.62464477
 30
0.0
 11
1577.96686897
 21
-1381.75223532
 31
0.0
  0
LINE
  8
ZUWAKU
  6
CONTINUOUS
 62
       7
  5
3A3
 10
1577.96686897
 20
-1381.75223532
 30
0.0
 11
1579.0802299
 21
-1382.82518118
 31
0.0
  0
LINE
  8
ZUWAKU
  6
CONTINUOUS
 62
       7
  5
3A4
 10
1579.0802299
 20
-1382.82518118
 30
0.0
 11
1580.30634286
 21
-1383.8353166
 31
0.0
  0
LINE
  8
ZUWAKU
  6
CONTINUOUS
 62
       7
  5
3A5
 10
1580.30634286
 20
-1383.8353166
 30
0.0
 11
1581.63587639
 21
-1384.77495383
 31
0.0
  0
LINE
  8
ZUWAKU
  6
CONTINUOUS
 62
       7
  5
3A6
 10
1581.63587639
 20
-1384.77495383
 30
0.0
 11
1583.05871195
 21
-1385.63694166
 31
0.0
  0
LINE
  8
ZUWAKU
  6
CONTINUOUS
 62
       7
  5
3A7
 10
1583.05871195
 20
-1385.63694166
 30
0.0
 11
1584.56402089
 21
-1386.41471985
 31
0.0
  0
LINE
  8
ZUWAKU
  6
CONTINUOUS
 62
       7
  5
3A8
 10
1584.56402089
 20
-1386.41471985
 30
0.0
 11
1586.14034691
 21
-1387.10236904
 31
0.0
  0
LINE
  8
ZUWAKU
  6
CONTINUOUS
 62
       7
  5
3A9
 10
1586.14034691
 20
-1387.10236904
 30
0.0
 11
1587.77569321
 21
-1387.6946558
 31
0.0
  0
LINE
  8
ZUWAKU
  6
CONTINUOUS
 62
       7
  5
3AA
 10
1587.77569321
 20
-1387.6946558
 30
0.0
 11
1589.45761382
 21
-1388.18707247
 31
0.0
  0
LINE
  8
ZUWAKU
  6
CONTINUOUS
 62
       7
  5
3AB
 10
1589.45761382
 20
-1388.18707247
 30
0.0
 11
1591.1733083
 21
-1388.57587146
 31
0.0
  0
LINE
  8
ZUWAKU
  6
CONTINUOUS
 62
       7
  5
3AC
 10
1591.1733083
 20
-1388.57587146
 30
0.0
 11
1592.90971919
 21
-1388.85809378
 31
0.0
  0
LINE
  8
ZUWAKU
  6
CONTINUOUS
 62
       7
  5
3AD
 10
1592.90971919
 20
-1388.85809378
 30
0.0
 11
1594.65363136
 21
-1389.03159154
 31
0.0
  0
LINE
  8
ZUWAKU
  6
CONTINUOUS
 62
       7
  5
3AE
 10
1594.65363136
 20
-1389.03159154
 30
0.0
 11
1596.39177257
 21
-1389.09504433
 31
0.0
  0
LINE
  8
ZUWAKU
  6
CONTINUOUS
 62
       7
  5
3AF
 10
1596.39177257
 20
-1389.09504433
 30
0.0
 11
1598.11091452
 21
-1389.04796922
 31
0.0
  0
LINE
  8
ZUWAKU
  6
CONTINUOUS
 62
       7
  5
3B0
 10
1598.11091452
 20
-1389.04796922
 30
0.0
 11
1599.79797351
 21
-1388.8907245
 31
0.0
  0
LINE
  8
ZUWAKU
  6
CONTINUOUS
 62
       7
  5
3B1
 10
1599.79797351
 20
-1388.8907245
 30
0.0
 11
1601.44010999
 21
-1388.62450687
 31
0.0
  0
LINE
  8
ZUWAKU
  6
CONTINUOUS
 62
       7
  5
3B2
 10
1601.44010999
 20
-1388.62450687
 30
0.0
 11
1603.02482632
 21
-1388.25134244
 31
0.0
  0
LINE
  8
ZUWAKU
  6
CONTINUOUS
 62
       7
  5
3B3
 10
1603.02482632
 20
-1388.25134244
 30
0.0
 11
1604.54006185
 21
-1387.77407119
 31
0.0
  0
LINE
  8
ZUWAKU
  6
CONTINUOUS
 62
       7
  5
3B4
 10
1604.54006185
 20
-1387.77407119
 30
0.0
 11
1605.97428472
 21
-1387.19632545
 31
0.0
  0
LINE
  8
ZUWAKU
  6
CONTINUOUS
 62
       7
  5
3B5
 10
1605.97428472
 20
-1387.19632545
 30
0.0
 11
1607.31657962
 21
-1386.52250222
 31
0.0
  0
LINE
  8
ZUWAKU
  6
CONTINUOUS
 62
       7
  5
3B6
 10
1607.31657962
 20
-1386.52250222
 30
0.0
 11
1608.5567309
 21
-1385.75772969
 31
0.0
  0
LINE
  8
ZUWAKU
  6
CONTINUOUS
 62
       7
  5
3B7
 10
1608.5567309
 20
-1385.75772969
 30
0.0
 11
1609.68530023
 21
-1384.90782825
 31
0.0
  0
LINE
  8
ZUWAKU
  6
CONTINUOUS
 62
       7
  5
3B8
 10
1609.68530023
 20
-1384.90782825
 30
0.0
 11
1610.68346768
 21
-1383.98868704
 31
0.0
  0
LINE
  8
ZUWAKU
  6
CONTINUOUS
 62
       7
  5
3B9
 10
1608.3297992
 20
-1371.16871871
 30
0.0
 11
1612.85697664
 21
-1375.69589614
 31
0.0
  0
LINE
  8
ZUWAKU
  6
CONTINUOUS
 62
       7
  5
3BA
 10
1613.89083786
 20
-1376.72975737
 30
0.0
 11
1620.51834027
 21
-1383.35725978
 31
0.0
  0
LINE
  8
ZUWAKU
  6
CONTINUOUS
 62
       7
  5
3BB
 10
1607.4094243
 20
-1372.08909361
 30
0.0
 11
1612.37588615
 21
-1377.05555546
 31
0.0
  0
LINE
  8
ZUWAKU
  6
CONTINUOUS
 62
       7
  5
3BC
 10
1613.32723997
 20
-1378.00690929
 30
0.0
 11
1615.26794188
 21
-1379.9476112
 31
0.0
  0
LINE
  8
ZUWAKU
  6
CONTINUOUS
 62
       7
  5
3BD
 10
1614.95457574
 20
-1376.87312034
 30
0.0
 11
1622.39961878
 21
-1384.31816339
 31
0.0
  0
LINE
  8
ZUWAKU
  6
CONTINUOUS
 62
       7
  5
3BE
 10
1564.87723904
 20
-1362.78120764
 30
0.0
 11
1564.39600173
 21
-1365.25695899
 31
0.0
  0
LINE
  8
ZUWAKU
  6
CONTINUOUS
 62
       7
  5
3BF
 10
1576.48973869
 20
-1362.38094682
 30
0.0
 11
1577.25197222
 21
-1361.5151812
 31
0.0
  0
LINE
  8
ZUWAKU
  6
CONTINUOUS
 62
       7
  5
3C0
 10
1577.25197222
 20
-1361.5151812
 30
0.0
 11
1578.30911069
 21
-1360.54173777
 31
0.0
  0
LINE
  8
ZUWAKU
  6
CONTINUOUS
 62
       7
  5
3C1
 10
1578.30911069
 20
-1360.54173777
 30
0.0
 11
1579.4875254
 21
-1359.65429885
 31
0.0
  0
LINE
  8
ZUWAKU
  6
CONTINUOUS
 62
       7
  5
3C2
 10
1579.4875254
 20
-1359.65429885
 30
0.0
 11
1580.77762837
 21
-1358.85872227
 31
0.0
  0
LINE
  8
ZUWAKU
  6
CONTINUOUS
 62
       7
  5
3C3
 10
1580.77762837
 20
-1358.85872227
 30
0.0
 11
1582.1692897
 21
-1358.16011742
 31
0.0
  0
LINE
  8
ZUWAKU
  6
CONTINUOUS
 62
       7
  5
3C4
 10
1582.1692897
 20
-1358.16011742
 30
0.0
 11
1583.65186095
 21
-1357.56289558
 31
0.0
  0
LINE
  8
ZUWAKU
  6
CONTINUOUS
 62
       7
  5
3C5
 10
1583.65186095
 20
-1357.56289558
 30
0.0
 11
1585.21419537
 21
-1357.07078905
 31
0.0
  0
LINE
  8
ZUWAKU
  6
CONTINUOUS
 62
       7
  5
3C6
 10
1585.21419537
 20
-1357.07078905
 30
0.0
 11
1586.84467681
 21
-1356.68684797
 31
0.0
  0
LINE
  8
ZUWAKU
  6
CONTINUOUS
 62
       7
  5
3C7
 10
1586.84467681
 20
-1356.68684797
 30
0.0
 11
1588.53126251
 21
-1356.41342439
 31
0.0
  0
LINE
  8
ZUWAKU
  6
CONTINUOUS
 62
       7
  5
3C8
 10
1588.53126251
 20
-1356.41342439
 30
0.0
 11
1590.26154008
 21
-1356.25215142
 31
0.0
  0
LINE
  8
ZUWAKU
  6
CONTINUOUS
 62
       7
  5
3C9
 10
1590.26154008
 20
-1356.25215142
 30
0.0
 11
1592.02279698
 21
-1356.20392308
 31
0.0
  0
LINE
  8
ZUWAKU
  6
CONTINUOUS
 62
       7
  5
3CA
 10
1592.02279698
 20
-1356.20392308
 30
0.0
 11
1593.80210001
 21
-1356.26887853
 31
0.0
  0
LINE
  8
ZUWAKU
  6
CONTINUOUS
 62
       7
  5
3CB
 10
1593.80210001
 20
-1356.26887853
 30
0.0
 11
1595.58638185
 21
-1356.44639258
 31
0.0
  0
LINE
  8
ZUWAKU
  6
CONTINUOUS
 62
       7
  5
3CC
 10
1595.58638185
 20
-1356.44639258
 30
0.0
 11
1597.36253238
 21
-1356.73507386
 31
0.0
  0
LINE
  8
ZUWAKU
  6
CONTINUOUS
 62
       7
  5
3CD
 10
1597.36253238
 20
-1356.73507386
 30
0.0
 11
1599.11749239
 21
-1357.13277094
 31
0.0
  0
LINE
  8
ZUWAKU
  6
CONTINUOUS
 62
       7
  5
3CE
 10
1599.11749239
 20
-1357.13277094
 30
0.0
 11
1600.83834764
 21
-1357.63658652
 31
0.0
  0
LINE
  8
ZUWAKU
  6
CONTINUOUS
 62
       7
  5
3CF
 10
1600.83834764
 20
-1357.63658652
 30
0.0
 11
1602.51242141
 21
-1358.24289952
 31
0.0
  0
LINE
  8
ZUWAKU
  6
CONTINUOUS
 62
       7
  5
3D0
 10
1602.51242141
 20
-1358.24289952
 30
0.0
 11
1604.12736373
 21
-1358.94739451
 31
0.0
  0
LINE
  8
ZUWAKU
  6
CONTINUOUS
 62
       7
  5
3D1
 10
1604.12736373
 20
-1358.94739451
 30
0.0
 11
1605.67123523
 21
-1359.74509759
 31
0.0
  0
LINE
  8
ZUWAKU
  6
CONTINUOUS
 62
       7
  5
3D2
 10
1605.67123523
 20
-1359.74509759
 30
0.0
 11
1607.13258399
 21
-1360.63041764
 31
0.0
  0
LINE
  8
ZUWAKU
  6
CONTINUOUS
 62
       7
  5
3D3
 10
1607.13258399
 20
-1360.63041764
 30
0.0
 11
1608.5005132
 21
-1361.59719071
 31
0.0
  0
LINE
  8
ZUWAKU
  6
CONTINUOUS
 62
       7
  5
3D4
 10
1608.5005132
 20
-1361.59719071
 30
0.0
 11
1609.7647381
 21
-1362.63872471
 31
0.0
  0
LINE
  8
ZUWAKU
  6
CONTINUOUS
 62
       7
  5
3D5
 10
1609.7647381
 20
-1362.63872471
 30
0.0
 11
1610.74892694
 21
-1363.58718744
 31
0.0
  0
LINE
  8
ZUWAKU
  6
CONTINUOUS
 62
       7
  5
3D6
 10
1574.09111977
 20
-1370.72261054
 30
0.0
 11
1574.19819143
 21
-1370.17177462
 31
0.0
  0
LINE
  8
ZUWAKU
  6
CONTINUOUS
 62
       7
  5
3D7
 10
1615.00446301
 20
-1371.46638568
 30
0.0
 11
1615.14338149
 21
-1372.70342193
 31
0.0
  0
LINE
  8
ZUWAKU
  6
CONTINUOUS
 62
       7
  5
3D8
 10
1615.14338149
 20
-1372.70342193
 30
0.0
 11
1615.13283094
 21
-1374.03736119
 31
0.0
  0
LINE
  8
ZUWAKU
  6
CONTINUOUS
 62
       7
  5
3D9
 10
1615.13283094
 20
-1374.03736119
 30
0.0
 11
1614.96576749
 21
-1375.31205734
 31
0.0
  0
LINE
  8
ZUWAKU
  6
CONTINUOUS
 62
       7
  5
3DA
 10
1614.96576749
 20
-1375.31205734
 30
0.0
 11
1614.77591694
 21
-1376.28875376
 31
0.0
  0
ARC
  8
ZUWAKU
  6
CONTINUOUS
 62
       7
  5
3DB
 10
1615.41476319
 20
-1376.41293289
 30
0.0
 40
0.65080334
 50
169.0
 51
225.0
  0
LINE
  8
ZUWAKU
  6
CONTINUOUS
 62
       7
  5
3DC
 10
1622.13576215
 20
-1387.17907448
 30
0.0
 11
1622.57827758
 21
-1384.90252997
 31
0.0
  0
ARC
  8
ZUWAKU
  6
CONTINUOUS
 62
       7
  5
3DD
 10
1621.93943133
 20
-1384.77835084
 30
0.0
 40
0.65080334
 50
349.0
 51
405.0
  0
ARC
  8
ZUWAKU
  6
CONTINUOUS
 62
       7
  5
3DE
 10
1608.3297992
 20
-1371.16871871
 30
0.0
 40
1.30160667
 50
115.0
 51
225.0
  0
ARC
  8
ZUWAKU
  6
CONTINUOUS
 62
       7
  5
3DF
 10
1608.3297992
 20
-1371.16871871
 30
0.0
 40
1.95241001
 50
138.08539469
 51
169.0
  0
ARC
  8
ZUWAKU
  6
CONTINUOUS
 62
       7
  5
3E0
 10
1606.39264068
 20
-1369.42971423
 30
0.0
 40
0.65080334
 50
318.08539469
 51
448.1
  0
LINE
  8
ZUWAKU
  6
CONTINUOUS
 62
       7
  5
3E1
 10
1576.71283941
 20
-1371.64824809
 30
0.0
 11
1576.86199241
 21
-1372.29265421
 31
0.0
  0
LINE
  8
ZUWAKU
  6
CONTINUOUS
 62
       7
  5
3E2
 10
1576.86199241
 20
-1372.29265421
 30
0.0
 11
1577.25202629
 21
-1373.4026144
 31
0.0
  0
LINE
  8
ZUWAKU
  6
CONTINUOUS
 62
       7
  5
3E3
 10
1577.25202629
 20
-1373.4026144
 30
0.0
 11
1577.77289415
 21
-1374.50152703
 31
0.0
  0
LINE
  8
ZUWAKU
  6
CONTINUOUS
 62
       7
  5
3E4
 10
1577.77289415
 20
-1374.50152703
 30
0.0
 11
1578.42178415
 21
-1375.58071976
 31
0.0
  0
LINE
  8
ZUWAKU
  6
CONTINUOUS
 62
       7
  5
3E5
 10
1578.42178415
 20
-1375.58071976
 30
0.0
 11
1579.19466794
 21
-1376.63138049
 31
0.0
  0
LINE
  8
ZUWAKU
  6
CONTINUOUS
 62
       7
  5
3E6
 10
1579.19466794
 20
-1376.63138049
 30
0.0
 11
1580.08630635
 21
-1377.64475316
 31
0.0
  0
LINE
  8
ZUWAKU
  6
CONTINUOUS
 62
       7
  5
3E7
 10
1580.08630635
 20
-1377.64475316
 30
0.0
 11
1581.09030557
 21
-1378.61230716
 31
0.0
  0
LINE
  8
ZUWAKU
  6
CONTINUOUS
 62
       7
  5
3E8
 10
1581.09030557
 20
-1378.61230716
 30
0.0
 11
1582.19920253
 21
-1379.52587396
 31
0.0
  0
LINE
  8
ZUWAKU
  6
CONTINUOUS
 62
       7
  5
3E9
 10
1582.19920253
 20
-1379.52587396
 30
0.0
 11
1583.40456404
 21
-1380.37775359
 31
0.0
  0
LINE
  8
ZUWAKU
  6
CONTINUOUS
 62
       7
  5
3EA
 10
1583.40456404
 20
-1380.37775359
 30
0.0
 11
1584.69709055
 21
-1381.16079709
 31
0.0
  0
LINE
  8
ZUWAKU
  6
CONTINUOUS
 62
       7
  5
3EB
 10
1584.69709055
 20
-1381.16079709
 30
0.0
 11
1586.06672023
 21
-1381.86847115
 31
0.0
  0
LINE
  8
ZUWAKU
  6
CONTINUOUS
 62
       7
  5
3EC
 10
1586.06672023
 20
-1381.86847115
 30
0.0
 11
1587.5027315
 21
-1382.49491008
 31
0.0
  0
LINE
  8
ZUWAKU
  6
CONTINUOUS
 62
       7
  5
3ED
 10
1587.5027315
 20
-1382.49491008
 30
0.0
 11
1588.9938441
 21
-1383.03495854
 31
0.0
  0
LINE
  8
ZUWAKU
  6
CONTINUOUS
 62
       7
  5
3EE
 10
1588.9938441
 20
-1383.03495854
 30
0.0
 11
1590.52831907
 21
-1383.48420748
 31
0.0
  0
LINE
  8
ZUWAKU
  6
CONTINUOUS
 62
       7
  5
3EF
 10
1590.52831907
 20
-1383.48420748
 30
0.0
 11
1592.09405806
 21
-1383.83902458
 31
0.0
  0
LINE
  8
ZUWAKU
  6
CONTINUOUS
 62
       7
  5
3F0
 10
1592.09405806
 20
-1383.83902458
 30
0.0
 11
1593.67870281
 21
-1384.09658005
 31
0.0
  0
LINE
  8
ZUWAKU
  6
CONTINUOUS
 62
       7
  5
3F1
 10
1593.67870281
 20
-1384.09658005
 30
0.0
 11
1595.26973483
 21
-1384.25486812
 31
0.0
  0
LINE
  8
ZUWAKU
  6
CONTINUOUS
 62
       7
  5
3F2
 10
1595.26973483
 20
-1384.25486812
 30
0.0
 11
1596.85457608
 21
-1384.31272452
 31
0.0
  0
LINE
  8
ZUWAKU
  6
CONTINUOUS
 62
       7
  5
3F3
 10
1596.85457608
 20
-1384.31272452
 30
0.0
 11
1598.42069069
 21
-1384.26983975
 31
0.0
  0
LINE
  8
ZUWAKU
  6
CONTINUOUS
 62
       7
  5
3F4
 10
1598.42069069
 20
-1384.26983975
 30
0.0
 11
1599.95568859
 21
-1384.12676809
 31
0.0
  0
LINE
  8
ZUWAKU
  6
CONTINUOUS
 62
       7
  5
3F5
 10
1599.95568859
 20
-1384.12676809
 30
0.0
 11
1601.44743156
 21
-1383.88493176
 31
0.0
  0
LINE
  8
ZUWAKU
  6
CONTINUOUS
 62
       7
  5
3F6
 10
1601.44743156
 20
-1383.88493176
 30
0.0
 11
1602.88414301
 21
-1383.54661908
 31
0.0
  0
LINE
  8
ZUWAKU
  6
CONTINUOUS
 62
       7
  5
3F7
 10
1602.88414301
 20
-1383.54661908
 30
0.0
 11
1604.25452252
 21
-1383.11497481
 31
0.0
  0
LINE
  8
ZUWAKU
  6
CONTINUOUS
 62
       7
  5
3F8
 10
1605.23875095
 20
-1382.71849962
 30
0.0
 11
1604.25452252
 21
-1383.11497481
 31
0.0
  0
LINE
  8
ZUWAKU
  6
CONTINUOUS
 62
       7
  5
3F9
 10
1606.47812829
 20
-1374.97292448
 30
0.0
 11
1607.94450701
 21
-1376.4393032
 31
0.0
  0
LINE
  8
ZUWAKU
  6
CONTINUOUS
 62
       7
  5
3FA
 10
1606.41326047
 20
-1370.79618132
 30
0.0
 11
1605.94215191
 21
-1373.21982474
 31
0.0
  0
ARC
  8
ZUWAKU
  6
CONTINUOUS
 62
       7
  5
3FB
 10
1607.85869065
 20
-1373.59236213
 30
0.0
 40
1.95241001
 50
169.0
 51
225.0
  0
LINE
  8
ZUWAKU
  6
CONTINUOUS
 62
       7
  5
3FC
 10
1567.42737431
 20
-1362.96879076
 30
0.0
 11
1576.62499027
 21
-1363.27390711
 31
0.0
  0
LINE
  8
ZUWAKU
  6
CONTINUOUS
 62
       7
  5
3FD
 10
1578.14437559
 20
-1363.32431031
 30
0.0
 11
1609.09538109
 21
-1364.35106091
 31
0.0
  0
LINE
  8
ZUWAKU
  6
CONTINUOUS
 62
       7
  5
3FE
 10
1610.62415242
 20
-1364.40177548
 30
0.0
 11
1620.99649752
 21
-1364.7458616
 31
0.0
  0
LINE
  8
ZUWAKU
  6
CONTINUOUS
 62
       7
  5
3FF
 10
1621.09747112
 20
-1365.24216272
 30
0.0
 11
1613.52470827
 21
-1368.7573222
 31
0.0
  0
LINE
  8
ZUWAKU
  6
CONTINUOUS
 62
       7
  5
400
 10
1612.43811611
 20
-1369.26170149
 30
0.0
 11
1608.3297992
 21
-1371.16871871
 31
0.0
  0
ARC
  8
ZUWAKU
  6
CONTINUOUS
 62
       7
  5
401
 10
1620.98786652
 20
-1365.00603982
 30
0.0
 40
0.26032133
 50
294.9
 51
448.1
  0
LINE
  8
ZUWAKU
  6
CONTINUOUS
 62
       7
  5
402
 10
1620.24097447
 20
-1383.78436566
 30
0.0
 11
1611.59569446
 21
-1380.46575359
 31
0.0
  0
LINE
  8
ZUWAKU
  6
CONTINUOUS
 62
       7
  5
403
 10
1610.38631807
 20
-1380.00151749
 30
0.0
 11
1576.22049447
 21
-1366.88648658
 31
0.0
  0
LINE
  8
ZUWAKU
  6
CONTINUOUS
 62
       7
  5
404
 10
1574.9998836
 20
-1366.41793797
 30
0.0
 11
1567.32545249
 21
-1363.47199988
 31
0.0
  0
ARC
  8
ZUWAKU
  6
CONTINUOUS
 62
       7
  5
405
 10
1567.41874331
 20
-1363.22896897
 30
0.0
 40
0.26032133
 50
90.0
 51
249.0
  0
ARC
  8
ZUWAKU
  6
CONTINUOUS
 62
       7
  5
406
 10
1620.33426529
 20
-1383.54133476
 30
0.0
 40
0.26032133
 50
249.0
 51
405.0
  0
LINE
  8
ZUWAKU
  6
CONTINUOUS
 62
       7
  5
407
 10
1611.17895292
 20
-1363.76901877
 30
0.0
 11
1622.76892537
 21
-1364.15349776
 31
0.0
  0
ARC
  8
ZUWAKU
  6
CONTINUOUS
 62
       7
  5
408
 10
1611.20053042
 20
-1363.11857324
 30
0.0
 40
0.65080334
 50
226.05902282
 51
268.1
  0
LINE
  8
ZUWAKU
  6
CONTINUOUS
 62
       7
  5
409
 10
1565.53766279
 20
-1362.25494124
 30
0.0
 11
1575.97969501
 21
-1362.60133913
 31
0.0
  0
ARC
  8
ZUWAKU
  6
CONTINUOUS
 62
       7
  5
40A
 10
1565.51608529
 20
-1362.90538677
 30
0.0
 40
0.65080334
 50
88.1
 51
169.0
  0
ARC
  8
ZUWAKU
  6
CONTINUOUS
 62
       7
  5
40B
 10
1576.00127251
 20
-1361.95089359
 30
0.0
 40
0.65080334
 50
268.1
 51
318.6388066
  0
LINE
  8
ZUWAKU
  6
CONTINUOUS
 62
       7
  5
40C
 10
1623.38619411
 20
-1364.92812242
 30
0.0
 11
1622.98859857
 21
-1366.97357415
 31
0.0
  0
ARC
  8
ZUWAKU
  6
CONTINUOUS
 62
       7
  5
40D
 10
1622.74734787
 20
-1364.80394329
 30
0.0
 40
0.65080334
 50
349.0
 51
448.1
  0
LINE
  8
ZUWAKU
  6
CONTINUOUS
 62
       7
  5
40E
 10
1622.62376384
 20
-1367.43970229
 30
0.0
 11
1615.37718955
 21
-1370.80345009
 31
0.0
  0
ARC
  8
ZUWAKU
  6
CONTINUOUS
 62
       7
  5
40F
 10
1622.34975233
 20
-1366.84939502
 30
0.0
 40
0.65080334
 50
294.9
 51
349.0
  0
ARC
  8
ZUWAKU
  6
CONTINUOUS
 62
       7
  5
410
 10
1615.65120106
 20
-1371.39375735
 30
0.0
 40
0.65080334
 50
114.9
 51
186.40743915
  0
LINE
  8
ZUWAKU
  6
CONTINUOUS
 62
       7
  5
411
 10
1614.99057608
 20
-1380.37471708
 30
0.0
 11
1612.46207714
 21
-1379.40411728
 31
0.0
  0
ARC
  8
ZUWAKU
  6
CONTINUOUS
 62
       7
  5
412
 10
1615.0838669
 20
-1380.13168618
 30
0.0
 40
0.26032133
 50
249.0
 51
405.0
  0
LINE
  8
ZUWAKU
  6
CONTINUOUS
 62
       7
  5
413
 10
1611.263746
 20
-1378.94412105
 30
0.0
 11
1576.67054065
 21
-1365.66503366
 31
0.0
  0
LINE
  8
ZUWAKU
  6
CONTINUOUS
 62
       7
  5
414
 10
1575.46669907
 20
-1365.20292217
 30
0.0
 11
1573.57010749
 21
-1364.47488887
 31
0.0
  0
LINE
  8
ZUWAKU
  6
CONTINUOUS
 62
       7
  5
415
 10
1607.66714121
 20
-1376.86640909
 30
0.0
 11
1588.33642414
 21
-1369.44604203
 31
0.0
  0
ARC
  8
ZUWAKU
  6
CONTINUOUS
 62
       7
  5
416
 10
1607.76043203
 20
-1376.62337818
 30
0.0
 40
0.26032133
 50
249.0
 51
405.0
  0
LINE
  8
ZUWAKU
  6
CONTINUOUS
 62
       7
  5
417
 10
1564.80162092
 20
-1365.98871538
 30
0.0
 11
1573.79257224
 21
-1369.44001823
 31
0.0
  0
ARC
  8
ZUWAKU
  6
CONTINUOUS
 62
       7
  5
418
 10
1573.55934518
 20
-1370.04759549
 30
0.0
 40
0.65080334
 50
349.0
 51
429.0
  0
LINE
  8
ZUWAKU
  6
CONTINUOUS
 62
       7
  5
419
 10
1577.58010767
 20
-1370.89391687
 30
0.0
 11
1605.22880452
 21
-1381.5072572
 31
0.0
  0
ARC
  8
ZUWAKU
  6
CONTINUOUS
 62
       7
  5
41A
 10
1604.99557746
 20
-1382.11483446
 30
0.0
 40
0.65080334
 50
291.94097718
 51
429.0
  0
LINE
  8
ZUWAKU
  6
CONTINUOUS
 62
       7
  5
41B
 10
1611.35754021
 20
-1383.85985841
 30
0.0
 11
1621.26368885
 21
-1387.6624726
 31
0.0
  0
ARC
  8
ZUWAKU
  6
CONTINUOUS
 62
       7
  5
41C
 10
1621.4969159
 20
-1387.05489535
 30
0.0
 40
0.65080334
 50
249.0
 51
349.0
  0
ARC
  8
ZUWAKU
  6
CONTINUOUS
 62
       7
  5
41D
 10
1611.12431315
 20
-1384.46743567
 30
0.0
 40
0.65080334
 50
69.0
 51
132.63976032
  0
ARC
  8
ZUWAKU
  6
CONTINUOUS
 62
       7
  5
41E
 10
1577.34688062
 20
-1371.50149412
 30
0.0
 40
0.65080334
 50
69.0
 51
193.03208385
  0
ARC
  8
ZUWAKU
  6
CONTINUOUS
 62
       7
  5
41F
 10
1565.03484797
 20
-1365.38113812
 30
0.0
 40
0.65080334
 50
169.0
 51
249.0
  0
LINE
  8
ZUWAKU
  6
CONTINUOUS
 62
       7
  5
420
 10
1577.23270326
 20
-1364.59638969
 30
0.0
 11
1610.32931463
 21
-1365.69431737
 31
0.0
  0
LINE
  8
ZUWAKU
  6
CONTINUOUS
 62
       7
  5
421
 10
1573.57010749
 20
-1364.47488887
 30
0.0
 11
1575.81324412
 21
-1364.54930138
 31
0.0
  0
LINE
  8
ZUWAKU
  6
CONTINUOUS
 62
       7
  5
422
 10
1611.89009308
 20
-1368.08108695
 30
0.0
 11
1607.78177618
 21
-1369.98810417
 31
0.0
  0
LINE
  8
ZUWAKU
  6
CONTINUOUS
 62
       7
  5
423
 10
1588.5912287
 20
-1368.18801924
 30
0.0
 11
1606.41421818
 21
-1368.7792687
 31
0.0
  0
ARC
  8
ZUWAKU
  6
CONTINUOUS
 62
       7
  5
424
 10
1588.5696512
 20
-1368.83846478
 30
0.0
 40
0.65080334
 50
88.1
 51
249.0
  0
LINE
  8
ZUWAKU
  6
CONTINUOUS
 62
       7
  5
425
 10
1576.42946528
 20
-1362.94184021
 30
0.0
 11
1565.52687404
 21
-1362.58016401
 31
0.0
  0
ARC
  8
ZUWAKU
  6
CONTINUOUS
 62
       7
  5
426
 10
1565.51608529
 20
-1362.90538677
 30
0.0
 40
0.32540167
 50
88.1
 51
169.0
  0
LINE
  8
ZUWAKU
  6
CONTINUOUS
 62
       7
  5
427
 10
1565.19666216
 20
-1362.84329721
 30
0.0
 11
1564.71542485
 21
-1365.31904856
 31
0.0
  0
ARC
  8
ZUWAKU
  6
CONTINUOUS
 62
       7
  5
428
 10
1565.03484797
 20
-1365.38113812
 30
0.0
 40
0.32540167
 50
169.0
 51
249.0
  0
LINE
  8
ZUWAKU
  6
CONTINUOUS
 62
       7
  5
429
 10
1564.91823444
 20
-1365.68492675
 30
0.0
 11
1573.90918577
 21
-1369.1362296
 31
0.0
  0
ARC
  8
ZUWAKU
  6
CONTINUOUS
 62
       7
  5
42A
 10
1573.55934518
 20
-1370.04759549
 30
0.0
 40
0.976205
 50
47.38928591
 51
69.0
  0
ARC
  8
ZUWAKU
  6
CONTINUOUS
 62
       7
  5
42B
 10
1567.41874331
 20
-1363.22896897
 30
0.0
 40
0.585723
 50
88.1
 51
249.0
  0
LINE
  8
ZUWAKU
  6
CONTINUOUS
 62
       7
  5
42C
 10
1574.61196974
 20
-1366.61758416
 30
0.0
 11
1567.20883896
 21
-1363.7757885
 31
0.0
  0
LINE
  8
ZUWAKU
  6
CONTINUOUS
 62
       7
  5
42D
 10
1598.87858032
 20
-1362.07916039
 30
0.0
 11
1598.04678714
 21
-1361.83563592
 31
0.0
  0
LINE
  8
ZUWAKU
  6
CONTINUOUS
 62
       7
  5
42E
 10
1598.04678714
 20
-1361.83563592
 30
0.0
 11
1596.44178262
 21
-1361.47192074
 31
0.0
  0
LINE
  8
ZUWAKU
  6
CONTINUOUS
 62
       7
  5
42F
 10
1596.44178262
 20
-1361.47192074
 30
0.0
 11
1594.81739824
 21
-1361.20790631
 31
0.0
  0
LINE
  8
ZUWAKU
  6
CONTINUOUS
 62
       7
  5
430
 10
1594.81739824
 20
-1361.20790631
 30
0.0
 11
1593.18599654
 21
-1361.04560195
 31
0.0
  0
LINE
  8
ZUWAKU
  6
CONTINUOUS
 62
       7
  5
431
 10
1593.18599654
 20
-1361.04560195
 30
0.0
 11
1591.55999347
 21
-1360.98624289
 31
0.0
  0
LINE
  8
ZUWAKU
  6
CONTINUOUS
 62
       7
  5
432
 10
1591.55999347
 20
-1360.98624289
 30
0.0
 11
1589.9517639
 21
-1361.03028089
 31
0.0
  0
LINE
  8
ZUWAKU
  6
CONTINUOUS
 62
       7
  5
433
 10
1589.9517639
 20
-1361.03028089
 30
0.0
 11
1588.37354743
 21
-1361.1773808
 31
0.0
  0
LINE
  8
ZUWAKU
  6
CONTINUOUS
 62
       7
  5
434
 10
1588.37354743
 20
-1361.1773808
 30
0.0
 11
1586.83735524
 21
-1361.42642309
 31
0.0
  0
LINE
  8
ZUWAKU
  6
CONTINUOUS
 62
       7
  5
435
 10
1586.83735524
 20
-1361.42642309
 30
0.0
 11
1585.88663477
 21
-1361.65029601
 31
0.0
  0
LINE
  8
ZUWAKU
  6
CONTINUOUS
 62
       7
  5
436
 10
1586.01422668
 20
-1362.93421882
 30
0.0
 11
1598.67414261
 21
-1363.35419149
 31
0.0
  0
ARC
  8
ZUWAKU
  6
CONTINUOUS
 62
       7
  5
437
 10
1586.03580418
 20
-1362.28377329
 30
0.0
 40
0.65080334
 50
103.25045477
 51
268.1
  0
ARC
  8
ZUWAKU
  6
CONTINUOUS
 62
       7
  5
438
 10
1598.69572011
 20
-1362.70374596
 30
0.0
 40
0.65080334
 50
268.1
 51
433.68152816
  0
LINE
  8
ZUWAKU
  6
CONTINUOUS
 62
       7
  5
439
 10
1578.84413043
 20
-1363.0219429
 30
0.0
 11
1608.25984027
 21
-1363.9977625
 31
0.0
  0
ARC
  8
ZUWAKU
  6
CONTINUOUS
 62
       7
  5
43A
 10
1586.03580418
 20
-1362.28377329
 30
0.0
 40
0.976205
 50
103.25045477
 51
268.1
  0
ARC
  8
ZUWAKU
  6
CONTINUOUS
 62
       7
  5
43B
 10
1598.69572011
 20
-1362.70374596
 30
0.0
 40
0.976205
 50
268.1
 51
433.68152816
  0
ARC
  8
ZUWAKU
  6
CONTINUOUS
 62
       7
  5
43C
 10
1611.20053042
 20
-1363.11857324
 30
0.0
 40
0.976205
 50
226.05902282
 51
268.1
  0
LINE
  8
ZUWAKU
  6
CONTINUOUS
 62
       7
  5
43D
 10
1610.79323984
 20
-1364.08180402
 30
0.0
 11
1622.75813662
 21
-1364.47872052
 31
0.0
  0
ARC
  8
ZUWAKU
  6
CONTINUOUS
 62
       7
  5
43E
 10
1622.74734787
 20
-1364.80394329
 30
0.0
 40
0.32540167
 50
349.0
 51
448.1
  0
LINE
  8
ZUWAKU
  6
CONTINUOUS
 62
       7
  5
43F
 10
1623.06677099
 20
-1364.86603286
 30
0.0
 11
1622.66917545
 21
-1366.91148459
 31
0.0
  0
ARC
  8
ZUWAKU
  6
CONTINUOUS
 62
       7
  5
440
 10
1622.34975233
 20
-1366.84939502
 30
0.0
 40
0.32540167
 50
294.9
 51
349.0
  0
LINE
  8
ZUWAKU
  6
CONTINUOUS
 62
       7
  5
441
 10
1622.48675808
 20
-1367.14454866
 30
0.0
 11
1615.24018379
 21
-1370.50829645
 31
0.0
  0
ARC
  8
ZUWAKU
  6
CONTINUOUS
 62
       7
  5
442
 10
1615.65120106
 20
-1371.39375735
 30
0.0
 40
0.976205
 50
114.9
 51
186.40743915
  0
LINE
  8
ZUWAKU
  6
CONTINUOUS
 62
       7
  5
443
 10
1613.94978965
 20
-1368.91875559
 30
0.0
 11
1621.23447688
 21
-1365.53731636
 31
0.0
  0
ARC
  8
ZUWAKU
  6
CONTINUOUS
 62
       7
  5
444
 10
1620.98786652
 20
-1365.00603982
 30
0.0
 40
0.585723
 50
294.9
 51
448.1
  0
LINE
  8
ZUWAKU
  6
CONTINUOUS
 62
       7
  5
445
 10
1612.24996187
 20
-1369.70778937
 30
0.0
 11
1608.88911192
 21
-1371.26784398
 31
0.0
  0
LINE
  8
ZUWAKU
  6
CONTINUOUS
 62
       7
  5
446
 10
1611.44394158
 20
-1367.929434
 30
0.0
 11
1607.64477042
 21
-1369.69295053
 31
0.0
  0
LINE
  8
ZUWAKU
  6
CONTINUOUS
 62
       7
  5
447
 10
1577.42313927
 20
-1364.92828777
 30
0.0
 11
1610.16074234
 21
-1366.01430592
 31
0.0
  0
LINE
  8
ZUWAKU
  6
CONTINUOUS
 62
       7
  5
448
 10
1588.60201745
 20
-1367.86279648
 30
0.0
 11
1606.42500693
 21
-1368.45404593
 31
0.0
  0
LINE
  8
ZUWAKU
  6
CONTINUOUS
 62
       7
  5
449
 10
1611.14315079
 20
-1378.54927652
 30
0.0
 11
1577.11988606
 21
-1365.48896883
 31
0.0
  0
LINE
  8
ZUWAKU
  6
CONTINUOUS
 62
       7
  5
44A
 10
1609.8057457
 20
-1380.12720901
 30
0.0
 11
1576.44404834
 21
-1367.32085324
 31
0.0
  0
LINE
  8
ZUWAKU
  6
CONTINUOUS
 62
       7
  5
44B
 10
1577.6967212
 20
-1370.59012824
 30
0.0
 11
1605.34541804
 21
-1381.20346857
 31
0.0
  0
LINE
  8
ZUWAKU
  6
CONTINUOUS
 62
       7
  5
44C
 10
1620.12436094
 20
-1384.08815429
 30
0.0
 11
1611.69037214
 21
-1380.85064932
 31
0.0
  0
LINE
  8
ZUWAKU
  6
CONTINUOUS
 62
       7
  5
44D
 10
1611.47415374
 20
-1383.55606979
 30
0.0
 11
1621.38030238
 21
-1387.35868397
 31
0.0
  0
ARC
  8
ZUWAKU
  6
CONTINUOUS
 62
       7
  5
44E
 10
1577.34688062
 20
-1371.50149412
 30
0.0
 40
0.976205
 50
69.0
 51
193.03208385
  0
ARC
  8
ZUWAKU
  6
CONTINUOUS
 62
       7
  5
44F
 10
1588.5696512
 20
-1368.83846478
 30
0.0
 40
0.976205
 50
88.1
 51
249.0
  0
ARC
  8
ZUWAKU
  6
CONTINUOUS
 62
       7
  5
450
 10
1604.99557746
 20
-1382.11483446
 30
0.0
 40
0.976205
 50
291.94097718
 51
429.0
  0
ARC
  8
ZUWAKU
  6
CONTINUOUS
 62
       7
  5
451
 10
1606.39264068
 20
-1369.42971423
 30
0.0
 40
0.976205
 50
318.08539469
 51
448.1
  0
ARC
  8
ZUWAKU
  6
CONTINUOUS
 62
       7
  5
452
 10
1611.12431315
 20
-1384.46743567
 30
0.0
 40
0.976205
 50
69.0
 51
132.63976032
  0
LINE
  8
ZUWAKU
  6
CONTINUOUS
 62
       7
  5
453
 10
1622.2707017
 20
-1384.7794916
 30
0.0
 11
1621.81633903
 21
-1387.11698491
 31
0.0
  0
ARC
  8
ZUWAKU
  6
CONTINUOUS
 62
       7
  5
454
 10
1621.4969159
 20
-1387.05489535
 30
0.0
 40
0.32540167
 50
249.0
 51
349.0
  0
LINE
  8
ZUWAKU
  6
CONTINUOUS
 62
       7
  5
455
 10
1612.96774686
 20
-1379.24967333
 30
0.0
 11
1614.82134698
 21
-1379.96120375
 31
0.0
  0
LINE
  8
ZUWAKU
  6
CONTINUOUS
 62
       7
  5
456
 10
1571.53475877
 20
-1335.80157239
 30
0.0
 11
1572.05434349
 21
-1333.12854072
 31
0.0
  0
LINE
  8
ZUWAKU
  6
CONTINUOUS
 62
       7
  5
457
 10
1574.29338725
 20
-1333.12854072
 30
0.0
 11
1572.05434349
 21
-1333.12854072
 31
0.0
  0
LINE
  8
ZUWAKU
  6
CONTINUOUS
 62
       7
  5
458
 10
1574.29338725
 20
-1333.12854072
 30
0.0
 11
1573.81296263
 21
-1335.60011113
 31
0.0
  0
ARC
  8
ZUWAKU
  6
CONTINUOUS
 62
       7
  5
459
 10
1574.3311768
 20
-1335.70084176
 30
0.0
 40
0.52791342
 50
169.0
 51
270.0
  0
LINE
  8
ZUWAKU
  6
CONTINUOUS
 62
       7
  5
45A
 10
1574.3311768
 20
-1336.22875518
 30
0.0
 11
1579.4778336
 21
-1336.22875518
 31
0.0
  0
LINE
  8
ZUWAKU
  6
CONTINUOUS
 62
       7
  5
45B
 10
1579.4778336
 20
-1336.22875518
 30
0.0
 11
1579.04027019
 21
-1338.47982376
 31
0.0
  0
LINE
  8
ZUWAKU
  6
CONTINUOUS
 62
       7
  5
45C
 10
1573.68838145
 20
-1338.47982376
 30
0.0
 11
1579.04027019
 21
-1338.47982376
 31
0.0
  0
ARC
  8
ZUWAKU
  6
CONTINUOUS
 62
       7
  5
45D
 10
1573.68838145
 20
-1339.00773718
 30
0.0
 40
0.52791342
 50
90.0
 51
169.0
  0
LINE
  8
ZUWAKU
  6
CONTINUOUS
 62
       7
  5
45E
 10
1573.17016728
 20
-1338.90700655
 30
0.0
 11
1571.44534127
 21
-1347.78046714
 31
0.0
  0
LINE
  8
ZUWAKU
  6
CONTINUOUS
 62
       7
  5
45F
 10
1569.20629751
 20
-1347.78046714
 30
0.0
 11
1571.44534127
 21
-1347.78046714
 31
0.0
  0
LINE
  8
ZUWAKU
  6
CONTINUOUS
 62
       7
  5
460
 10
1569.20629751
 20
-1347.78046714
 30
0.0
 11
1570.89196342
 21
-1339.10846781
 31
0.0
  0
ARC
  8
ZUWAKU
  6
CONTINUOUS
 62
       7
  5
461
 10
1570.37374925
 20
-1339.00773718
 30
0.0
 40
0.52791342
 50
349.0
 51
450.0
  0
LINE
  8
ZUWAKU
  6
CONTINUOUS
 62
       7
  5
462
 10
1570.37374925
 20
-1338.47982376
 30
0.0
 11
1565.22709245
 21
-1338.47982376
 31
0.0
  0
LINE
  8
ZUWAKU
  6
CONTINUOUS
 62
       7
  5
463
 10
1565.22709245
 20
-1338.47982376
 30
0.0
 11
1565.66465586
 21
-1336.22875518
 31
0.0
  0
LINE
  8
ZUWAKU
  6
CONTINUOUS
 62
       7
  5
464
 10
1565.66465586
 20
-1336.22875518
 30
0.0
 11
1571.01654461
 21
-1336.22875518
 31
0.0
  0
ARC
  8
ZUWAKU
  6
CONTINUOUS
 62
       7
  5
465
 10
1571.01654461
 20
-1335.70084176
 30
0.0
 40
0.52791342
 50
270.0
 51
349.0
  0
LINE
  8
ZUWAKU
  6
CONTINUOUS
 62
       7
  5
466
 10
1566.64094092
 20
-1340.77573639
 30
0.0
 11
1566.3997557
 21
-1342.01652681
 31
0.0
  0
ARC
  8
ZUWAKU
  6
CONTINUOUS
 62
       7
  5
467
 10
1563.24405405
 20
-1341.40312055
 30
0.0
 40
3.21476595
 50
285.60484579
 51
349.0
  0
ARC
  8
ZUWAKU
  6
CONTINUOUS
 62
       7
  5
468
 10
1564.13361314
 20
-1344.58812321
 30
0.0
 40
0.09212947
 50
105.60484579
 51
169.0
  0
LINE
  8
ZUWAKU
  6
CONTINUOUS
 62
       7
  5
469
 10
1563.42533642
 20
-1347.74905498
 30
0.0
 11
1564.04317635
 21
-1344.57054408
 31
0.0
  0
ARC
  8
ZUWAKU
  6
CONTINUOUS
 62
       7
  5
46A
 10
1562.10334539
 20
-1341.59693089
 30
0.0
 40
6.29255839
 50
282.12750956
 51
349.0
  0
LINE
  8
ZUWAKU
  6
CONTINUOUS
 62
       7
  5
46B
 10
1568.28029176
 20
-1342.79760763
 30
0.0
 11
1568.67330372
 21
-1340.77573639
 31
0.0
  0
LINE
  8
ZUWAKU
  6
CONTINUOUS
 62
       7
  5
46C
 10
1568.67330372
 20
-1340.77573639
 30
0.0
 11
1566.64094092
 21
-1340.77573639
 31
0.0
  0
LINE
  8
ZUWAKU
  6
CONTINUOUS
 62
       7
  5
46D
 10
1575.11486044
 20
-1340.77573639
 30
0.0
 11
1574.43670389
 21
-1344.26454941
 31
0.0
  0
ARC
  8
ZUWAKU
  6
CONTINUOUS
 62
       7
  5
46E
 10
1577.16462817
 20
-1344.79480417
 30
0.0
 40
2.778982
 50
169.0
 51
270.0
  0
LINE
  8
ZUWAKU
  6
CONTINUOUS
 62
       7
  5
46F
 10
1577.16462817
 20
-1347.57378617
 30
0.0
 11
1577.27258297
 21
-1347.57378617
 31
0.0
  0
LINE
  8
ZUWAKU
  6
CONTINUOUS
 62
       7
  5
470
 10
1577.27258297
 20
-1347.57378617
 30
0.0
 11
1577.87084521
 21
-1344.49599374
 31
0.0
  0
LINE
  8
ZUWAKU
  6
CONTINUOUS
 62
       7
  5
471
 10
1577.87084521
 20
-1344.49599374
 30
0.0
 11
1577.60997987
 21
-1344.49599374
 31
0.0
  0
ARC
  8
ZUWAKU
  6
CONTINUOUS
 62
       7
  5
472
 10
1577.60997987
 20
-1343.34803742
 30
0.0
 40
1.14795631
 50
169.0
 51
270.0
  0
LINE
  8
ZUWAKU
  6
CONTINUOUS
 62
       7
  5
473
 10
1576.48311474
 20
-1343.12899703
 30
0.0
 11
1576.94054228
 21
-1340.77573639
 31
0.0
  0
LINE
  8
ZUWAKU
  6
CONTINUOUS
 62
       7
  5
474
 10
1576.94054228
 20
-1340.77573639
 30
0.0
 11
1575.11486044
 21
-1340.77573639
 31
0.0
  0
LINE
  8
ZUWAKU
  6
CONTINUOUS
 62
       7
  5
475
 10
1586.23498059
 20
-1333.54190265
 30
0.0
 11
1586.03651277
 21
-1334.56293107
 31
0.0
  0
ARC
  8
ZUWAKU
  6
CONTINUOUS
 62
       7
  5
476
 10
1581.2577419
 20
-1333.63403212
 30
0.0
 40
4.86821367
 50
271.01523011
 51
349.0
  0
LINE
  8
ZUWAKU
  6
CONTINUOUS
 62
       7
  5
477
 10
1580.74890583
 20
-1341.56296431
 30
0.0
 11
1581.34399779
 21
-1338.50148157
 31
0.0
  0
ARC
  8
ZUWAKU
  6
CONTINUOUS
 62
       7
  5
478
 10
1580.22828381
 20
-1333.63403212
 30
0.0
 40
7.9460061
 50
273.75670841
 51
341.51398532
  0
ARC
  8
ZUWAKU
  6
CONTINUOUS
 62
       7
  5
479
 10
1588.26495822
 20
-1336.32088465
 30
0.0
 40
0.52791342
 50
90.0
 51
161.51398532
  0
LINE
  8
ZUWAKU
  6
CONTINUOUS
 62
       7
  5
47A
 10
1588.26495822
 20
-1335.79297122
 30
0.0
 11
1591.97747881
 21
-1335.79297122
 31
0.0
  0
ARC
  8
ZUWAKU
  6
CONTINUOUS
 62
       7
  5
47B
 10
1591.97747881
 20
-1336.32088465
 30
0.0
 40
0.52791342
 50
346.25869332
 51
450.0
  0
ARC
  8
ZUWAKU
  6
CONTINUOUS
 62
       7
  5
47C
 10
1582.13997584
 20
-1333.91524492
 30
0.0
 40
10.65528066
 50
277.26716646
 51
346.25869332
  0
LINE
  8
ZUWAKU
  6
CONTINUOUS
 62
       7
  5
47D
 10
1582.88804106
 20
-1347.57056972
 30
0.0
 11
1583.48782813
 21
-1344.48493271
 31
0.0
  0
ARC
  8
ZUWAKU
  6
CONTINUOUS
 62
       7
  5
47E
 10
1582.60929958
 20
-1335.49416079
 30
0.0
 40
12.07962538
 50
271.32223704
 51
349.0
  0
LINE
  8
ZUWAKU
  6
CONTINUOUS
 62
       7
  5
47F
 10
1594.46698822
 20
-1337.79906197
 30
0.0
 11
1595.29449616
 21
-1333.54190265
 31
0.0
  0
LINE
  8
ZUWAKU
  6
CONTINUOUS
 62
       7
  5
480
 10
1586.23498059
 20
-1333.54190265
 30
0.0
 11
1595.29449616
 21
-1333.54190265
 31
0.0
  0
LINE
  8
ZUWAKU
  6
CONTINUOUS
 62
       7
  5
481
 10
1610.38220653
 20
-1333.54190265
 30
0.0
 11
1597.60243361
 21
-1333.54190265
 31
0.0
  0
LINE
  8
ZUWAKU
  6
CONTINUOUS
 62
       7
  5
482
 10
1597.16487021
 20
-1335.79297122
 30
0.0
 11
1601.69148411
 21
-1335.79297122
 31
0.0
  0
LINE
  8
ZUWAKU
  6
CONTINUOUS
 62
       7
  5
483
 10
1605.00611631
 20
-1335.79297122
 30
0.0
 11
1609.94464313
 21
-1335.79297122
 31
0.0
  0
LINE
  8
ZUWAKU
  6
CONTINUOUS
 62
       7
  5
484
 10
1600.04432102
 20
-1345.32271759
 30
0.0
 11
1595.1057942
 21
-1345.32271759
 31
0.0
  0
LINE
  8
ZUWAKU
  6
CONTINUOUS
 62
       7
  5
485
 10
1608.09224808
 20
-1345.32271759
 30
0.0
 11
1603.35895321
 21
-1345.32271759
 31
0.0
  0
LINE
  8
ZUWAKU
  6
CONTINUOUS
 62
       7
  5
486
 10
1594.66823079
 20
-1347.57378617
 30
0.0
 11
1607.65468468
 21
-1347.57378617
 31
0.0
  0
LINE
  8
ZUWAKU
  6
CONTINUOUS
 62
       7
  5
487
 10
1597.60243361
 20
-1333.54190265
 30
0.0
 11
1597.16487021
 21
-1335.79297122
 31
0.0
  0
ARC
  8
ZUWAKU
  6
CONTINUOUS
 62
       7
  5
488
 10
1601.69148411
 20
-1336.32088465
 30
0.0
 40
0.52791342
 50
349.0
 51
450.0
  0
LINE
  8
ZUWAKU
  6
CONTINUOUS
 62
       7
  5
489
 10
1602.20969828
 20
-1336.42161528
 30
0.0
 11
1600.56253518
 21
-1344.8955348
 31
0.0
  0
ARC
  8
ZUWAKU
  6
CONTINUOUS
 62
       7
  5
48A
 10
1600.04432102
 20
-1344.79480417
 30
0.0
 40
0.52791342
 50
270.0
 51
349.0
  0
LINE
  8
ZUWAKU
  6
CONTINUOUS
 62
       7
  5
48B
 10
1595.1057942
 20
-1345.32271759
 30
0.0
 11
1594.66823079
 21
-1347.57378617
 31
0.0
  0
LINE
  8
ZUWAKU
  6
CONTINUOUS
 62
       7
  5
48C
 10
1607.65468468
 20
-1347.57378617
 30
0.0
 11
1608.09224808
 21
-1345.32271759
 31
0.0
  0
ARC
  8
ZUWAKU
  6
CONTINUOUS
 62
       7
  5
48D
 10
1603.35895321
 20
-1344.79480417
 30
0.0
 40
0.52791342
 50
169.0
 51
270.0
  0
LINE
  8
ZUWAKU
  6
CONTINUOUS
 62
       7
  5
48E
 10
1602.84073904
 20
-1344.69407354
 30
0.0
 11
1604.48790214
 21
-1336.22015402
 31
0.0
  0
ARC
  8
ZUWAKU
  6
CONTINUOUS
 62
       7
  5
48F
 10
1605.00611631
 20
-1336.32088465
 30
0.0
 40
0.52791342
 50
90.0
 51
169.0
  0
LINE
  8
ZUWAKU
  6
CONTINUOUS
 62
       7
  5
490
 10
1609.94464313
 20
-1335.79297122
 30
0.0
 11
1610.38220653
 21
-1333.54190265
 31
0.0
  0
LINE
  8
ZUWAKU
  6
CONTINUOUS
 62
       7
  5
491
 10
1623.43943281
 20
-1333.12854072
 30
0.0
 11
1621.73372053
 21
-1333.12854072
 31
0.0
  0
ARC
  8
ZUWAKU
  6
CONTINUOUS
 62
       7
  5
492
 10
1621.73372053
 20
-1333.22067019
 30
0.0
 40
0.09212947
 50
90.0
 51
151.06147226
  0
ARC
  8
ZUWAKU
  6
CONTINUOUS
 62
       7
  5
493
 10
1610.51949254
 20
-1327.02024127
 30
0.0
 40
12.7220903
 50
270.0
 51
331.06147226
  0
LINE
  8
ZUWAKU
  6
CONTINUOUS
 62
       7
  5
494
 10
1610.51949254
 20
-1339.74233157
 30
0.0
 11
1609.90740066
 21
-1339.74233157
 31
0.0
  0
LINE
  8
ZUWAKU
  6
CONTINUOUS
 62
       7
  5
495
 10
1609.15609144
 20
-1343.21677577
 30
0.0
 11
1609.81696386
 21
-1339.8168819
 31
0.0
  0
ARC
  8
ZUWAKU
  6
CONTINUOUS
 62
       7
  5
496
 10
1609.90740066
 20
-1339.83446104
 30
0.0
 40
0.09212947
 50
90.0
 51
169.0
  0
ARC
  8
ZUWAKU
  6
CONTINUOUS
 62
       7
  5
497
 10
1607.0363971
 20
-1325.06003374
 30
0.0
 40
18.2800543
 50
276.65880775
 51
292.91876618
  0
ARC
  8
ZUWAKU
  6
CONTINUOUS
 62
       7
  5
498
 10
1614.36070209
 20
-1342.3832611
 30
0.0
 40
0.52791342
 50
349.0
 51
472.91876618
  0
LINE
  8
ZUWAKU
  6
CONTINUOUS
 62
       7
  5
499
 10
1614.87891626
 20
-1342.48399173
 30
0.0
 11
1613.84938573
 21
-1347.78046714
 31
0.0
  0
LINE
  8
ZUWAKU
  6
CONTINUOUS
 62
       7
  5
49A
 10
1613.84938573
 20
-1347.78046714
 30
0.0
 11
1616.08842949
 21
-1347.78046714
 31
0.0
  0
LINE
  8
ZUWAKU
  6
CONTINUOUS
 62
       7
  5
49B
 10
1616.08842949
 20
-1347.78046714
 30
0.0
 11
1617.5501655
 21
-1340.2604873
 31
0.0
  0
ARC
  8
ZUWAKU
  6
CONTINUOUS
 62
       7
  5
49C
 10
1618.27126332
 20
-1340.40065451
 30
0.0
 40
0.73459439
 50
126.21757797
 51
169.0
  0
ARC
  8
ZUWAKU
  6
CONTINUOUS
 62
       7
  5
49D
 10
1607.0363971
 20
-1325.06003374
 30
0.0
 40
18.2800543
 50
306.21757797
 51
333.80783849
  0
LINE
  8
ZUWAKU
  6
CONTINUOUS
 62
       7
  5
49E
 10
1774.52453866
 20
-1341.04912008
 30
0.0
 11
1776.84836605
 21
-1329.09406456
 31
0.0
  0
LINE
  8
ZUWAKU
  6
CONTINUOUS
 62
       7
  5
49F
 10
1786.8624234
 20
-1329.09406456
 30
0.0
 11
1776.84836605
 21
-1329.09406456
 31
0.0
  0
LINE
  8
ZUWAKU
  6
CONTINUOUS
 62
       7
  5
4A0
 10
1786.8624234
 20
-1329.09406456
 30
0.0
 11
1784.71373842
 21
-1340.14809052
 31
0.0
  0
ARC
  8
ZUWAKU
  6
CONTINUOUS
 62
       7
  5
4A1
 10
1787.03143604
 20
-1340.5986053
 30
0.0
 40
2.36107726
 50
169.0
 51
270.0
  0
LINE
  8
ZUWAKU
  6
CONTINUOUS
 62
       7
  5
4A2
 10
1787.03143604
 20
-1342.95968255
 30
0.0
 11
1810.04970721
 21
-1342.95968255
 31
0.0
  0
LINE
  8
ZUWAKU
  6
CONTINUOUS
 62
       7
  5
4A3
 10
1810.04970721
 20
-1342.95968255
 30
0.0
 11
1808.09271774
 21
-1353.02752056
 31
0.0
  0
LINE
  8
ZUWAKU
  6
CONTINUOUS
 62
       7
  5
4A4
 10
1784.15655272
 20
-1353.02752056
 30
0.0
 11
1808.09271774
 21
-1353.02752056
 31
0.0
  0
ARC
  8
ZUWAKU
  6
CONTINUOUS
 62
       7
  5
4A5
 10
1784.15655272
 20
-1355.38859782
 30
0.0
 40
2.36107726
 50
90.0
 51
169.0
  0
LINE
  8
ZUWAKU
  6
CONTINUOUS
 62
       7
  5
4A6
 10
1781.8388551
 20
-1354.93808304
 30
0.0
 11
1774.12462149
 21
-1394.62437453
 31
0.0
  0
LINE
  8
ZUWAKU
  6
CONTINUOUS
 62
       7
  5
4A7
 10
1764.11056414
 20
-1394.62437453
 30
0.0
 11
1774.12462149
 21
-1394.62437453
 31
0.0
  0
LINE
  8
ZUWAKU
  6
CONTINUOUS
 62
       7
  5
4A8
 10
1764.11056414
 20
-1394.62437453
 30
0.0
 11
1771.64965534
 21
-1355.8391126
 31
0.0
  0
ARC
  8
ZUWAKU
  6
CONTINUOUS
 62
       7
  5
4A9
 10
1769.33195773
 20
-1355.38859782
 30
0.0
 40
2.36107726
 50
349.0
 51
450.0
  0
LINE
  8
ZUWAKU
  6
CONTINUOUS
 62
       7
  5
4AA
 10
1769.33195773
 20
-1353.02752056
 30
0.0
 11
1746.31368656
 21
-1353.02752056
 31
0.0
  0
LINE
  8
ZUWAKU
  6
CONTINUOUS
 62
       7
  5
4AB
 10
1746.31368656
 20
-1353.02752056
 30
0.0
 11
1748.27067602
 21
-1342.95968255
 31
0.0
  0
LINE
  8
ZUWAKU
  6
CONTINUOUS
 62
       7
  5
4AC
 10
1748.27067602
 20
-1342.95968255
 30
0.0
 11
1772.20684104
 21
-1342.95968255
 31
0.0
  0
ARC
  8
ZUWAKU
  6
CONTINUOUS
 62
       7
  5
4AD
 10
1772.20684104
 20
-1340.5986053
 30
0.0
 40
2.36107726
 50
270.0
 51
349.0
  0
LINE
  8
ZUWAKU
  6
CONTINUOUS
 62
       7
  5
4AE
 10
1752.63708225
 20
-1363.29592227
 30
0.0
 11
1751.55838842
 21
-1368.84532094
 31
0.0
  0
ARC
  8
ZUWAKU
  6
CONTINUOUS
 62
       7
  5
4AF
 10
1737.44460561
 20
-1366.10187947
 30
0.0
 40
14.37794618
 50
285.60484579
 51
349.0
  0
ARC
  8
ZUWAKU
  6
CONTINUOUS
 62
       7
  5
4B0
 10
1741.42313252
 20
-1380.3467102
 30
0.0
 40
0.41204634
 50
105.60484579
 51
169.0
  0
LINE
  8
ZUWAKU
  6
CONTINUOUS
 62
       7
  5
4B1
 10
1738.2553857
 20
-1394.48388458
 30
0.0
 11
1741.01865663
 21
-1380.26808805
 31
0.0
  0
ARC
  8
ZUWAKU
  6
CONTINUOUS
 62
       7
  5
4B2
 10
1732.34281969
 20
-1366.96869054
 30
0.0
 40
28.14328232
 50
282.12750956
 51
349.0
  0
LINE
  8
ZUWAKU
  6
CONTINUOUS
 62
       7
  5
4B3
 10
1759.96903065
 20
-1372.33868197
 30
0.0
 11
1761.72676508
 21
-1363.29592227
 31
0.0
  0
LINE
  8
ZUWAKU
  6
CONTINUOUS
 62
       7
  5
4B4
 10
1761.72676508
 20
-1363.29592227
 30
0.0
 11
1752.63708225
 21
-1363.29592227
 31
0.0
  0
LINE
  8
ZUWAKU
  6
CONTINUOUS
 62
       7
  5
4B5
 10
1790.53643809
 20
-1363.29592227
 30
0.0
 11
1787.50340285
 21
-1378.8995359
 31
0.0
  0
ARC
  8
ZUWAKU
  6
CONTINUOUS
 62
       7
  5
4B6
 10
1799.70396394
 20
-1381.27108473
 30
0.0
 40
12.42891527
 50
169.0
 51
270.0
  0
LINE
  8
ZUWAKU
  6
CONTINUOUS
 62
       7
  5
4B7
 10
1799.70396394
 20
-1393.7
 30
0.0
 11
1800.18678862
 21
-1393.7
 31
0.0
  0
LINE
  8
ZUWAKU
  6
CONTINUOUS
 62
       7
  5
4B8
 10
1800.18678862
 20
-1393.7
 30
0.0
 11
1802.86249891
 21
-1379.93466386
 31
0.0
  0
LINE
  8
ZUWAKU
  6
CONTINUOUS
 62
       7
  5
4B9
 10
1802.86249891
 20
-1379.93466386
 30
0.0
 11
1801.69578632
 21
-1379.93466386
 31
0.0
  0
ARC
  8
ZUWAKU
  6
CONTINUOUS
 62
       7
  5
4BA
 10
1801.69578632
 20
-1374.80046301
 30
0.0
 40
5.13420085
 50
169.0
 51
270.0
  0
LINE
  8
ZUWAKU
  6
CONTINUOUS
 62
       7
  5
4BB
 10
1796.6559152
 20
-1373.8208113
 30
0.0
 11
1798.70174638
 21
-1363.29592227
 31
0.0
  0
LINE
  8
ZUWAKU
  6
CONTINUOUS
 62
       7
  5
4BC
 10
1798.70174638
 20
-1363.29592227
 30
0.0
 11
1790.53643809
 21
-1363.29592227
 31
0.0
  0
LINE
  8
ZUWAKU
  6
CONTINUOUS
 62
       7
  5
4BD
 10
1840.27084839
 20
-1330.94281363
 30
0.0
 11
1839.38320689
 21
-1335.50933325
 31
0.0
  0
ARC
  8
ZUWAKU
  6
CONTINUOUS
 62
       7
  5
4BE
 10
1818.01029473
 20
-1331.35485997
 30
0.0
 40
21.77294244
 50
271.01523011
 51
349.0
  0
LINE
  8
ZUWAKU
  6
CONTINUOUS
 62
       7
  5
4BF
 10
1815.73454037
 20
-1366.81677599
 30
0.0
 11
1818.39607166
 21
-1353.12438451
 31
0.0
  0
ARC
  8
ZUWAKU
  6
CONTINUOUS
 62
       7
  5
4C0
 10
1813.40607371
 20
-1331.35485997
 30
0.0
 40
35.53827858
 50
273.75670841
 51
341.51398532
  0
ARC
  8
ZUWAKU
  6
CONTINUOUS
 62
       7
  5
4C1
 10
1849.34986364
 20
-1343.3717289
 30
0.0
 40
2.36107726
 50
90.0
 51
161.51398532
  0
LINE
  8
ZUWAKU
  6
CONTINUOUS
 62
       7
  5
4C2
 10
1849.34986364
 20
-1341.01065164
 30
0.0
 11
1865.95400275
 21
-1341.01065164
 31
0.0
  0
ARC
  8
ZUWAKU
  6
CONTINUOUS
 62
       7
  5
4C3
 10
1865.95400275
 20
-1343.3717289
 30
0.0
 40
2.36107726
 50
346.25869332
 51
450.0
  0
ARC
  8
ZUWAKU
  6
CONTINUOUS
 62
       7
  5
4C4
 10
1821.95606007
 20
-1332.61257595
 30
0.0
 40
47.65542936
 50
277.26716646
 51
346.25869332
  0
LINE
  8
ZUWAKU
  6
CONTINUOUS
 62
       7
  5
4C5
 10
1825.30175976
 20
-1393.6856145
 30
0.0
 11
1827.98428981
 21
-1379.88519375
 31
0.0
  0
ARC
  8
ZUWAKU
  6
CONTINUOUS
 62
       7
  5
4C6
 10
1824.05509668
 20
-1339.67423077
 30
0.0
 40
54.02576923
 50
271.32223704
 51
349.0
  0
LINE
  8
ZUWAKU
  6
CONTINUOUS
 62
       7
  5
4C7
 10
1877.08826037
 20
-1349.98283352
 30
0.0
 11
1880.78926532
 21
-1330.94281363
 31
0.0
  0
LINE
  8
ZUWAKU
  6
CONTINUOUS
 62
       7
  5
4C8
 10
1840.27084839
 20
-1330.94281363
 30
0.0
 11
1880.78926532
 21
-1330.94281363
 31
0.0
  0
LINE
  8
ZUWAKU
  6
CONTINUOUS
 62
       7
  5
4C9
 10
1948.2686062
 20
-1330.94281363
 30
0.0
 11
1891.11144768
 21
-1330.94281363
 31
0.0
  0
LINE
  8
ZUWAKU
  6
CONTINUOUS
 62
       7
  5
4CA
 10
1889.15445822
 20
-1341.01065164
 30
0.0
 11
1909.39960579
 21
-1341.01065164
 31
0.0
  0
LINE
  8
ZUWAKU
  6
CONTINUOUS
 62
       7
  5
4CB
 10
1924.22420078
 20
-1341.01065164
 30
0.0
 11
1946.31161674
 21
-1341.01065164
 31
0.0
  0
LINE
  8
ZUWAKU
  6
CONTINUOUS
 62
       7
  5
4CC
 10
1902.03271728
 20
-1383.63216199
 30
0.0
 11
1879.94530133
 21
-1383.63216199
 31
0.0
  0
LINE
  8
ZUWAKU
  6
CONTINUOUS
 62
       7
  5
4CD
 10
1938.02683438
 20
-1383.63216199
 30
0.0
 11
1916.85731228
 21
-1383.63216199
 31
0.0
  0
LINE
  8
ZUWAKU
  6
CONTINUOUS
 62
       7
  5
4CE
 10
1877.98831186
 20
-1393.7
 30
0.0
 11
1936.06984491
 21
-1393.7
 31
0.0
  0
LINE
  8
ZUWAKU
  6
CONTINUOUS
 62
       7
  5
4CF
 10
1891.11144768
 20
-1330.94281363
 30
0.0
 11
1889.15445822
 21
-1341.01065164
 31
0.0
  0
ARC
  8
ZUWAKU
  6
CONTINUOUS
 62
       7
  5
4D0
 10
1909.39960579
 20
-1343.3717289
 30
0.0
 40
2.36107726
 50
349.0
 51
450.0
  0
LINE
  8
ZUWAKU
  6
CONTINUOUS
 62
       7
  5
4D1
 10
1911.7173034
 20
-1343.82224368
 30
0.0
 11
1904.3504149
 21
-1381.72159951
 31
0.0
  0
ARC
  8
ZUWAKU
  6
CONTINUOUS
 62
       7
  5
4D2
 10
1902.03271728
 20
-1381.27108473
 30
0.0
 40
2.36107726
 50
270.0
 51
349.0
  0
LINE
  8
ZUWAKU
  6
CONTINUOUS
 62
       7
  5
4D3
 10
1879.94530133
 20
-1383.63216199
 30
0.0
 11
1877.98831186
 21
-1393.7
 31
0.0
  0
LINE
  8
ZUWAKU
  6
CONTINUOUS
 62
       7
  5
4D4
 10
1936.06984491
 20
-1393.7
 30
0.0
 11
1938.02683438
 21
-1383.63216199
 31
0.0
  0
ARC
  8
ZUWAKU
  6
CONTINUOUS
 62
       7
  5
4D5
 10
1916.85731228
 20
-1381.27108473
 30
0.0
 40
2.36107726
 50
169.0
 51
270.0
  0
LINE
  8
ZUWAKU
  6
CONTINUOUS
 62
       7
  5
4D6
 10
1914.53961466
 20
-1380.82056995
 30
0.0
 11
1921.90650316
 21
-1342.92121412
 31
0.0
  0
ARC
  8
ZUWAKU
  6
CONTINUOUS
 62
       7
  5
4D7
 10
1924.22420078
 20
-1343.3717289
 30
0.0
 40
2.36107726
 50
90.0
 51
169.0
  0
LINE
  8
ZUWAKU
  6
CONTINUOUS
 62
       7
  5
4D8
 10
1946.31161674
 20
-1341.01065164
 30
0.0
 11
1948.2686062
 21
-1330.94281363
 31
0.0
  0
LINE
  8
ZUWAKU
  6
CONTINUOUS
 62
       7
  5
4D9
 10
2006.66666667
 20
-1329.09406456
 30
0.0
 11
1999.03791868
 21
-1329.09406456
 31
0.0
  0
ARC
  8
ZUWAKU
  6
CONTINUOUS
 62
       7
  5
4DA
 10
1999.03791868
 20
-1329.50611091
 30
0.0
 40
0.41204634
 50
90.0
 51
151.06147226
  0
ARC
  8
ZUWAKU
  6
CONTINUOUS
 62
       7
  5
4DB
 10
1948.88261381
 20
-1301.77487493
 30
0.0
 40
56.89917468
 50
270.0
 51
331.06147226
  0
LINE
  8
ZUWAKU
  6
CONTINUOUS
 62
       7
  5
4DC
 10
1948.88261381
 20
-1358.67404961
 30
0.0
 11
1946.14505087
 21
-1358.67404961
 31
0.0
  0
LINE
  8
ZUWAKU
  6
CONTINUOUS
 62
       7
  5
4DD
 10
1942.78484252
 20
-1374.21339911
 30
0.0
 11
1945.74057498
 21
-1359.0074738
 31
0.0
  0
ARC
  8
ZUWAKU
  6
CONTINUOUS
 62
       7
  5
4DE
 10
1946.14505087
 20
-1359.08609595
 30
0.0
 40
0.41204634
 50
90.0
 51
169.0
  0
ARC
  8
ZUWAKU
  6
CONTINUOUS
 62
       7
  5
4DF
 10
1933.30457192
 20
-1293.0079044
 30
0.0
 40
81.75700521
 50
276.65880775
 51
292.91876618
  0
ARC
  8
ZUWAKU
  6
CONTINUOUS
 62
       7
  5
4E0
 10
1966.06231057
 20
-1370.48552927
 30
0.0
 40
2.36107726
 50
349.0
 51
472.91876618
  0
LINE
  8
ZUWAKU
  6
CONTINUOUS
 62
       7
  5
4E1
 10
1968.38000819
 20
-1370.93604405
 30
0.0
 11
1963.77546319
 21
-1394.62437453
 31
0.0
  0
LINE
  8
ZUWAKU
  6
CONTINUOUS
 62
       7
  5
4E2
 10
1963.77546319
 20
-1394.62437453
 30
0.0
 11
1973.78952055
 21
-1394.62437453
 31
0.0
  0
LINE
  8
ZUWAKU
  6
CONTINUOUS
 62
       7
  5
4E3
 10
1973.78952055
 20
-1394.62437453
 30
0.0
 11
1980.32709184
 21
-1360.99148588
 31
0.0
  0
ARC
  8
ZUWAKU
  6
CONTINUOUS
 62
       7
  5
4E4
 10
1983.55218063
 20
-1361.61837963
 30
0.0
 40
3.28545179
 50
126.21757797
 51
169.0
  0
ARC
  8
ZUWAKU
  6
CONTINUOUS
 62
       7
  5
4E5
 10
1933.30457192
 20
-1293.0079044
 30
0.0
 40
81.75700521
 50
306.21757797
 51
333.80783849
  0
LINE
  8
ZUWAKU
  6
CONTINUOUS
 62
       7
  5
4E6
 10
1031.66666667
 20
-1027.5
 30
0.0
 11
2021.66666667
 21
-1027.5
 31
0.0
  0
LINE
  8
ZUWAKU
  6
CONTINUOUS
 62
       7
  5
4E7
 10
1806.04166667
 20
-1235.0
 30
0.0
 11
1806.04166667
 21
-1310.0
 31
0.0
  0
LINE
  8
ZUWAKU
  6
CONTINUOUS
 62
       7
  5
4E8
 10
1753.54166667
 20
-1235.0
 30
0.0
 11
1753.54166667
 21
-1310.0
 31
0.0
  0
LINE
  8
ZUWAKU
  6
CONTINUOUS
 62
       7
  5
4E9
 10
-1890.0
 20
1389.16666667
 30
0.0
 11
2021.66666667
 21
1389.16666667
 31
0.0
  0
LINE
  8
ZUWAKU
  6
CONTINUOUS
 62
       7
  5
4EA
 10
2021.66666667
 20
1389.16666667
 30
0.0
 11
2021.66666667
 21
-1415.0
 31
0.0
  0
LINE
  8
ZUWAKU
  6
CONTINUOUS
 62
       7
  5
4EB
 10
2021.66666667
 20
-1415.0
 30
0.0
 11
-1890.0
 21
-1415.0
 31
0.0
  0
LINE
  8
ZUWAKU
  6
CONTINUOUS
 62
       7
  5
4EC
 10
-1890.0
 20
-1415.0
 30
0.0
 11
-1890.0
 21
1389.16666667
 31
0.0
  0
LINE
  8
ZUWAKU
  6
CONTINUOUS
 62
       7
  5
4ED
 10
1581.66666667
 20
-1115.0
 30
0.0
 11
1581.66666667
 21
-877.5
 31
0.0
  0
LINE
  8
ZUWAKU
  6
CONTINUOUS
 62
       7
  5
4EE
 10
1131.66666667
 20
-1115.0
 30
0.0
 11
1131.66666667
 21
-877.5
 31
0.0
  0
LINE
  8
ZUWAKU
  6
CONTINUOUS
 62
       7
  5
4EF
 10
1431.66666667
 20
-1115.0
 30
0.0
 11
1431.66666667
 21
-877.5
 31
0.0
  0
LINE
  8
ZUWAKU
  6
CONTINUOUS
 62
       7
  5
4F0
 10
1681.66666667
 20
-1115.0
 30
0.0
 11
1681.66666667
 21
-877.5
 31
0.0
  0
LINE
  8
ZUWAKU
  6
CONTINUOUS
 62
       7
  5
4F1
 10
1031.66666667
 20
-1077.5
 30
0.0
 11
1031.66666667
 21
-877.5
 31
0.0
  0
TEXT
  8
ZUWAKU
 62
       7
  5
4F2
 10
1142.34711541
 20
-1070.86656953
 30
0.0
 40
35.0
  1
屋根組立　
 41
0.8
 72
       5
 11
1282.34711541
 21
-1070.86656953
 31
0.0
  0
TEXT
  8
ZUWAKU
 62
       7
  5
4F3
 10
1437.15101991
 20
-1070.86656953
 30
0.0
 40
35.0
  1
SGHC 
 41
0.8
 72
       5
 11
1577.15101991
 21
-1070.86656953
 31
0.0
  0
TEXT
  8
ZUWAKU
 62
       7
  5
4F4
 10
1618.77409332
 20
-1070.86656953
 30
0.0
 40
35.0
  1
1 
 41
0.8
 72
       5
 11
1674.77409332
 21
-1070.86656953
 31
0.0
  0
TEXT
  8
ZUWAKU
 62
       7
  5
4F5
 10
1702.10742665
 20
-1070.86656953
 30
0.0
 40
35.0
  1
粉体焼付塗装　ｔ1.0
 41
0.8
 72
       5
 11
2010.10742665
 21
-1070.86656953
 31
0.0
  0
TEXT
  8
ZUWAKU
 62
       7
  5
4F6
 10
1702.10742665
 20
-1020.86656953
 30
0.0
 40
35.0
  1
粉体焼付塗装　ｔ2.0
 41
0.8
 72
       5
 11
2010.10742665
 21
-1020.86656953
 31
0.0
  0
TEXT
  8
ZUWAKU
 62
       7
  5
4F7
 10
1068.77409332
 20
-1020.86656953
 30
0.0
 40
35.0
  1
2
 41
0.8
 72
       5
 11
1096.77409332
 21
-1020.86656953
 31
0.0
  0
TEXT
  8
ZUWAKU
 62
       7
  5
4F8
 10
1142.34711541
 20
-1020.86656953
 30
0.0
 40
35.0
  1
脚　組立　
 41
0.8
 72
       5
 11
1282.34711541
 21
-1020.86656953
 31
0.0
  0
TEXT
  8
ZUWAKU
 62
       7
  5
4F9
 10
1586.92857706
 20
-1020.86656953
 30
0.0
 40
35.0
  1
左右各1 
 41
0.65
 72
       5
 11
1700.67857706
 21
-1020.86656953
 31
0.0
  0
TEXT
  8
ZUWAKU
 62
       7
  5
4FA
 10
1068.77409332
 20
-970.86656953
 30
0.0
 40
35.0
  1
3
 41
0.8
 72
       5
 11
1096.77409332
 21
-970.86656953
 31
0.0
  0
TEXT
  8
ZUWAKU
 62
       7
  5
4FB
 10
1702.10742665
 20
-970.86656953
 30
0.0
 40
35.0
  1
M6　クロメートメッキ　
 41
0.75
 72
       5
 11
2017.10742665
 21
-970.86656953
 31
0.0
  0
TEXT
  8
ZUWAKU
 62
       7
  5
4FC
 10
1142.34711541
 20
-970.86656953
 30
0.0
 40
35.0
  1
六角ボルト　
 41
0.8
 72
       5
 11
1310.34711541
 21
-970.86656953
 31
0.0
  0
TEXT
  8
ZUWAKU
 62
       7
  5
4FD
 10
1618.77409332
 20
-970.86656953
 30
0.0
 40
35.0
  1
4 
 41
0.65
 72
       5
 11
1664.27409332
 21
-970.86656953
 31
0.0
  0
TEXT
  8
ZUWAKU
 62
       7
  5
4FE
 10
1437.15101991
 20
-1020.86656953
 30
0.0
 40
35.0
  1
SGHC 
 41
0.8
 72
       5
 11
1577.15101991
 21
-1020.86656953
 31
0.0
  0
TEXT
  8
ZUWAKU
 62
       7
  5
4FF
 10
1437.15101991
 20
-970.86656953
 30
0.0
 40
35.0
  1
SS400
 41
0.8
 72
       5
 11
1577.15101991
 21
-970.86656953
 31
0.0
  0
TEXT
  8
ZUWAKU
 62
       7
  5
500
 10
1068.77409332
 20
-920.86656953
 30
0.0
 40
35.0
  1
4
 41
0.8
 72
       5
 11
1096.77409332
 21
-920.86656953
 31
0.0
  0
TEXT
  8
ZUWAKU
 62
       7
  5
501
 10
1142.34711541
 20
-920.86656953
 30
0.0
 40
35.0
  1
六角ボルト+平座+ナット
 41
0.65
 72
       5
 11
1415.34711541
 21
-920.86656953
 31
0.0
  0
TEXT
  8
ZUWAKU
 62
       7
  5
502
 10
1437.15101991
 20
-920.86656953
 30
0.0
 40
35.0
  1
SS400
 41
0.8
 72
       5
 11
1577.15101991
 21
-920.86656953
 31
0.0
  0
TEXT
  8
ZUWAKU
 62
       7
  5
503
 10
1618.77409332
 20
-920.86656953
 30
0.0
 40
35.0
  1
2
 41
0.65
 72
       5
 11
1641.52409332
 21
-920.86656953
 31
0.0
  0
TEXT
  8
ZUWAKU
 62
       7
  5
504
 10
1702.10742665
 20
-920.86656953
 30
0.0
 40
35.0
  1
M12　クロメートメッキ　
 41
0.75
 72
       5
 11
2043.35742665
 21
-920.86656953
 31
0.0
  0
TEXT
  8
ZUWAKU
 62
       7
  5
505
 10
991.66938748
 20
-920.86656953
 30
0.0
 40
35.0
  1
※
 41
0.8
 72
       5
 11
1019.66938748
 21
-920.86656953
 31
0.0
  0
TEXT
  8
ZUWAKU
 62
       7
  5
506
 10
1045.91666667
 20
-1167.5
 30
0.0
 40
30.0
  1
図
 41
0.8
 72
       5
 11
1069.91666667
 21
-1167.5
 31
0.0
  0
TEXT
  8
ZUWAKU
 62
       7
  5
507
 10
1045.91666667
 20
-1212.5
 30
0.0
 40
30.0
  1
名
 41
0.8
 72
       5
 11
1069.91666667
 21
-1212.5
 31
0.0
  0
TEXT
  8
ZUWAKU
 62
       7
  5
508
 10
1045.91666667
 20
-1272.5
 30
0.0
 40
30.0
  1
尺
 41
0.8
 72
       5
 11
1069.91666667
 21
-1272.5
 31
0.0
  0
TEXT
  8
ZUWAKU
 62
       7
  5
509
 10
1045.91666667
 20
-1302.5
 30
0.0
 40
30.0
  1
度
 41
0.8
 72
       5
 11
1069.91666667
 21
-1302.5
 31
0.0
  0
TEXT
  8
ZUWAKU
 62
       7
  5
50A
 10
1683.41666667
 20
-1167.5
 30
0.0
 40
30.0
  1
図
 41
0.8
 72
       5
 11
1707.41666667
 21
-1167.5
 31
0.0
  0
TEXT
  8
ZUWAKU
 62
       7
  5
50B
 10
1683.41666667
 20
-1212.5
 30
0.0
 40
30.0
  1
番
 41
0.8
 72
       5
 11
1707.41666667
 21
-1212.5
 31
0.0
  0
TEXT
  8
ZUWAKU
 62
       7
  5
50C
 10
1767.79166667
 20
-1272.5
 30
0.0
 40
30.0
  1
日
 41
0.8
 72
       5
 11
1791.79166667
 21
-1272.5
 31
0.0
  0
TEXT
  8
ZUWAKU
 62
       7
  5
50D
 10
1767.79166667
 20
-1302.5
 30
0.0
 40
30.0
  1
付
 41
0.8
 72
       5
 11
1791.79166667
 21
-1302.5
 31
0.0
  0
TEXT
  8
ZUWAKU
 62
       7
  5
50E
 10
1821.84904498
 20
-1287.5
 30
0.0
 40
30.0
  1
2005.10.5
 41
0.7
 72
       5
 11
2010.84904498
 21
-1287.5
 31
0.0
  0
TEXT
  8
ZUWAKU
 62
       7
  5
50F
 10
1732.66666667
 20
-1192.5
 30
0.0
 40
35.0
  1
HT-GF-SN03
 41
0.8
 72
       5
 11
2012.66666667
 21
-1192.5
 31
0.0
  0
TEXT
  8
ZUWAKU
 62
       7
  5
510
 10
1109.66666667
 20
-1287.5
 30
0.0
 40
30.0
  1
1/10
 41
0.8
 72
       5
 11
1205.66666667
 21
-1287.5
 31
0.0
  0
TEXT
  8
ZUWAKU
 62
       7
  5
511
 10
1045.91666667
 20
-1111.25
 30
0.0
 40
30.0
  1
番
 41
0.8
 72
       5
 11
1069.91666667
 21
-1111.25
 31
0.0
  0
TEXT
  8
ZUWAKU
 62
       7
  5
512
 10
1093.41666667
 20
-1111.25
 30
0.0
 40
30.0
  1
号
 41
0.8
 72
       5
 11
1117.41666667
 21
-1111.25
 31
0.0
  0
TEXT
  8
ZUWAKU
 62
       7
  5
513
 10
1172.16666667
 20
-1111.25
 30
0.0
 40
30.0
  1
品
 41
0.8
 72
       5
 11
1196.16666667
 21
-1111.25
 31
0.0
  0
TEXT
  8
ZUWAKU
 62
       7
  5
514
 10
1367.16666667
 20
-1111.25
 30
0.0
 40
30.0
  1
名
 41
0.8
 72
       5
 11
1391.16666667
 21
-1111.25
 31
0.0
  0
TEXT
  8
ZUWAKU
 62
       7
  5
515
 10
1457.16666667
 20
-1111.25
 30
0.0
 40
30.0
  1
材
 41
0.8
 72
       5
 11
1481.16666667
 21
-1111.25
 31
0.0
  0
TEXT
  8
ZUWAKU
 62
       7
  5
516
 10
1532.16666667
 20
-1111.25
 30
0.0
 40
30.0
  1
質
 41
0.8
 72
       5
 11
1556.16666667
 21
-1111.25
 31
0.0
  0
TEXT
  8
ZUWAKU
 62
       7
  5
517
 10
1595.91666667
 20
-1111.25
 30
0.0
 40
30.0
  1
個
 41
0.8
 72
       5
 11
1619.91666667
 21
-1111.25
 31
0.0
  0
TEXT
  8
ZUWAKU
 62
       7
  5
518
 10
1643.41666667
 20
-1111.25
 30
0.0
 40
30.0
  1
数
 41
0.8
 72
       5
 11
1667.41666667
 21
-1111.25
 31
0.0
  0
TEXT
  8
ZUWAKU
 62
       7
  5
519
 10
1722.16666667
 20
-1111.25
 30
0.0
 40
30.0
  1
記
 41
0.8
 72
       5
 11
1746.16666667
 21
-1111.25
 31
0.0
  0
TEXT
  8
ZUWAKU
 62
       7
  5
51A
 10
1957.16666667
 20
-1111.25
 30
0.0
 40
30.0
  1
事
 41
0.8
 72
       5
 11
1981.16666667
 21
-1111.25
 31
0.0
  0
TEXT
  8
ZUWAKU
 62
       7
  5
51B
 10
1402.16666667
 20
-1287.5
 30
0.0
 40
30.0
  1
田渕
 41
0.8
 72
       5
 11
1450.16666667
 21
-1287.5
 31
0.0
  0
TEXT
  8
ZUWAKU
 62
       7
  5
51C
 10
1345.91666667
 20
-1272.5
 30
0.0
 40
30.0
  1
製
 41
0.8
 72
       5
 11
1369.91666667
 21
-1272.5
 31
0.0
  0
TEXT
  8
ZUWAKU
 62
       7
  5
51D
 10
1345.91666667
 20
-1302.5
 30
0.0
 40
30.0
  1
図
 41
0.8
 72
       5
 11
1369.91666667
 21
-1302.5
 31
0.0
  0
TEXT
  8
ZUWAKU
 62
       7
  5
51E
 10
1488.41666667
 20
-1272.5
 30
0.0
 40
30.0
  1
検
 41
0.8
 72
       5
 11
1512.41666667
 21
-1272.5
 31
0.0
  0
TEXT
  8
ZUWAKU
 62
       7
  5
51F
 10
1488.41666667
 20
-1302.5
 30
0.0
 40
30.0
  1
図
 41
0.8
 72
       5
 11
1512.41666667
 21
-1302.5
 31
0.0
  0
TEXT
  8
ZUWAKU
 62
       7
  5
520
 10
1045.91666667
 20
-1351.25
 30
0.0
 40
30.0
  1
表
 41
0.8
 72
       5
 11
1069.91666667
 21
-1351.25
 31
0.0
  0
TEXT
  8
ZUWAKU
 62
       7
  5
521
 10
1075.91666667
 20
-1351.25
 30
0.0
 40
30.0
  1
面
 41
0.8
 72
       5
 11
1099.91666667
 21
-1351.25
 31
0.0
  0
TEXT
  8
ZUWAKU
 62
       7
  5
522
 10
1045.91666667
 20
-1403.75
 30
0.0
 40
30.0
  1
処
 41
0.8
 72
       5
 11
1069.91666667
 21
-1403.75
 31
0.0
  0
TEXT
  8
ZUWAKU
 62
       7
  5
523
 10
1075.91666667
 20
-1403.75
 30
0.0
 40
30.0
  1
理
 41
0.8
 72
       5
 11
1099.91666667
 21
-1403.75
 31
0.0
  0
TEXT
  8
ZUWAKU
 62
       7
  5
524
 10
1687.16666667
 20
-1287.5
 30
0.0
 40
30.0
  1
ｍｍ
 41
0.8
 72
       5
 11
1735.16666667
 21
-1287.5
 31
0.0
  0
TEXT
  8
ZUWAKU
 62
       7
  5
525
 10
1630.91666667
 20
-1272.5
 30
0.0
 40
30.0
  1
単
 41
0.8
 72
       5
 11
1654.91666667
 21
-1272.5
 31
0.0
  0
TEXT
  8
ZUWAKU
 62
       7
  5
526
 10
1630.91666667
 20
-1302.5
 30
0.0
 40
30.0
  1
位
 41
0.8
 72
       5
 11
1654.91666667
 21
-1302.5
 31
0.0
  0
TEXT
  8
ZUWAKU
 62
       7
  5
527
 10
1663.73973526
 20
-1360.35709076
 30
0.0
 40
30.0
  1
株
 41
0.8
 72
       5
 11
1687.73973526
 21
-1360.35709076
 31
0.0
  0
TEXT
  8
ZUWAKU
 62
       7
  5
528
 10
1699.73973526
 20
-1360.35709076
 30
0.0
 40
30.0
  1
式
 41
0.8
 72
       5
 11
1723.73973526
 21
-1360.35709076
 31
0.0
  0
TEXT
  8
ZUWAKU
 62
       7
  5
529
 10
1663.73973526
 20
-1396.35709076
 30
0.0
 40
30.0
  1
会
 41
0.8
 72
       5
 11
1687.73973526
 21
-1396.35709076
 31
0.0
  0
TEXT
  8
ZUWAKU
 62
       7
  5
52A
 10
1699.73973526
 20
-1396.35709076
 30
0.0
 40
30.0
  1
社
 41
0.8
 72
       5
 11
1723.73973526
 21
-1396.35709076
 31
0.0
  0
TEXT
  8
ZUWAKU
 62
       7
  5
52B
 10
1068.77409332
 20
-1070.86656953
 30
0.0
 40
35.0
  1
1
 41
0.8
 72
       5
 11
1096.77409332
 21
-1070.86656953
 31
0.0
  0
TEXT
  8
ZUWAKU
 62
       7
  5
52C
 10
1168.77409332
 20
-1070.86656953
 30
0.0
 40
35.0
  1
　
 41
0.8
 72
       5
 11
1196.77409332
 21
-1070.86656953
 31
0.0
  0
TEXT
  8
ZUWAKU
 62
       7
  5
52D
 10
1437.15101991
 20
-1070.86656953
 30
0.0
 40
35.0
  1
 
 41
0.8
 72
       5
 11
1465.15101991
 21
-1070.86656953
 31
0.0
  0
TEXT
  8
ZUWAKU
 62
       7
  5
52E
 10
1618.77409332
 20
-1070.86656953
 30
0.0
 40
35.0
  1
 
 41
0.8
 72
       5
 11
1646.77409332
 21
-1070.86656953
 31
0.0
  0
TEXT
  8
ZUWAKU
 62
       7
  5
52F
 10
1718.77409332
 20
-1070.86656953
 30
0.0
 40
35.0
  1
　
 41
0.8
 72
       5
 11
1746.77409332
 21
-1070.86656953
 31
0.0
  0
TEXT
  8
ZUWAKU
 62
       7
  5
530
 10
1176.08494541
 20
-1358.27774462
 30
0.0
 40
35.0
  1
粉体焼付塗装
 41
0.8
 72
       5
 11
1344.08494541
 21
-1358.27774462
 31
0.0
  0
TEXT
  8
ZUWAKU
 62
       7
  5
531
 10
1117.84988956
 20
-1397.22395815
 30
0.0
 40
30.0
  1
　
 41
0.8
 72
       5
 11
1141.84988956
 21
-1397.22395815
 31
0.0
  0
TEXT
  8
ZUWAKU
 62
       7
  5
532
 10
1120.76634908
 20
-1171.66760452
 30
0.0
 40
40.0
  1
G200/250用　タンクルーフ　
 41
0.75
 72
       5
 11
1662.76634908
 21
-1171.66760452
 31
0.0
  0
TEXT
  8
ZUWAKU
 62
       7
  5
533
 10
1030.29166679
 20
-1223.70149436
 30
0.0
 40
40.0
  1
　
 41
0.75
 72
       5
 11
1060.29166679
 21
-1223.70149436
 31
0.0
  0
TEXT
  8
ZUWAKU
 62
       7
  5
534
 10
1120.76634908
 20
-1221.21281833
 30
0.0
 40
40.0
  1
JF-200
 41
0.75
 72
       5
 11
1310.76634908
 21
-1221.21281833
 31
0.0
  0
TEXT
  8
ZUWAKU
 62
       7
  5
535
 10
1176.08494541
 20
-1407.82295843
 30
0.0
 40
35.0
  1
アイボリー色
 41
0.8
 72
       5
 11
1344.08494541
 21
-1407.82295843
 31
0.0
  0
LINE
  8
LAYER0016
  6
CENTER
 62
       7
  5
536
 10
559.49043111
 20
-1028.43212841
 30
0.0
 11
559.49043111
 21
-984.16605529
 31
0.0
  0
ARC
  8
LAYER0016
  6
CONTINUOUS
 62
       7
  5
537
 10
627.57043111
 20
-1076.54266514
 30
0.0
 40
5.92
 50
270.0
 51
360.0
  0
LINE
  8
LAYER0017
  6
CONTINUOUS
 62
       7
  5
538
 10
637.49043111
 20
-1006.38266514
 30
0.0
 11
637.49043111
 21
-897.43819522
 31
0.0
  0
LINE
  8
LAYER0017
  6
CONTINUOUS
 62
       7
  5
539
 10
497.49043111
 20
-996.46266514
 30
0.0
 11
497.49043111
 21
-897.43819522
 31
0.0
  0
LINE
  8
LAYER0017
  6
CONTINUOUS
 62
       7
  5
53A
 10
637.57043111
 20
-1006.46266514
 30
0.0
 11
785.02513685
 21
-1006.46266514
 31
0.0
  0
LINE
  8
LAYER0017
  6
CONTINUOUS
 62
       7
  5
53B
 10
637.57043111
 20
-1086.46266514
 30
0.0
 11
785.02513685
 21
-1086.46266514
 31
0.0
  0
LINE
  8
LAYER0017
  6
CONTINUOUS
 62
       7
  5
53C
 10
775.02513685
 20
-1006.46266514
 30
0.0
 11
775.02513685
 21
-1086.46266514
 31
0.0
  0
LINE
  8
LAYER0017
  6
CONTINUOUS
 62
       7
  5
53D
 10
612.49043111
 20
-1096.46266514
 30
0.0
 11
612.49043111
 21
-1171.23034776
 31
0.0
  0
LINE
  8
LAYER0017
  6
CONTINUOUS
 62
       7
  5
53E
 10
637.49043111
 20
-1086.54266514
 30
0.0
 11
637.49043111
 21
-1171.23034776
 31
0.0
  0
LINE
  8
LAYER0017
  6
CONTINUOUS
 62
       7
  5
53F
 10
612.49043111
 20
-1161.23034776
 30
0.0
 11
637.49043111
 21
-1161.23034776
 31
0.0
  0
LINE
  8
LAYER0017
  6
CONTINUOUS
 62
       7
  5
540
 10
526.46823283
 20
-907.43819522
 30
0.0
 11
608.5126294
 21
-907.43819522
 31
0.0
  0
INSERT
  8
LAYER0017
  6
CONTINUOUS
 62
       7
  5
541
  2
_OPEN30
 10
497.49043111
 20
-907.43819522
 30
0.0
 41
30.00002788
 42
29.99989274
 50
180.0
  0
INSERT
  8
LAYER0017
  6
CONTINUOUS
 62
       7
  5
542
  2
_OPEN30
 10
637.49043111
 20
-907.43819522
 30
0.0
 41
30.00002788
 42
29.99989274
 50
360.0
  0
LINE
  8
LAYER0017
  6
CONTINUOUS
 62
       7
  5
543
 10
775.02513685
 20
-956.46266514
 30
0.0
 11
775.02513685
 21
-977.48486343
 31
0.0
  0
INSERT
  8
LAYER0017
  6
CONTINUOUS
 62
       7
  5
544
  2
_OPEN30
 10
775.02513685
 20
-1006.46266514
 30
0.0
 41
30.00002788
 42
29.99989274
 50
270.0
  0
LINE
  8
LAYER0017
  6
CONTINUOUS
 62
       7
  5
545
 10
775.02513685
 20
-1136.46266514
 30
0.0
 11
775.02513685
 21
-1115.44046686
 31
0.0
  0
INSERT
  8
LAYER0017
  6
CONTINUOUS
 62
       7
  5
546
  2
_OPEN30
 10
775.02513685
 20
-1086.46266514
 30
0.0
 41
30.00002788
 42
29.99989274
 50
90.0
  0
LINE
  8
LAYER0017
  6
CONTINUOUS
 62
       7
  5
547
 10
467.51263111
 20
-1161.23034776
 30
0.0
 11
583.5126294
 21
-1161.23034776
 31
0.0
  0
INSERT
  8
LAYER0017
  6
CONTINUOUS
 62
       7
  5
548
  2
_OPEN30
 10
612.49043111
 20
-1161.23034776
 30
0.0
 41
30.00002788
 42
29.99989274
 50
360.0
  0
LINE
  8
LAYER0017
  6
CONTINUOUS
 62
       7
  5
549
 10
687.49043111
 20
-1161.23034776
 30
0.0
 11
666.46823283
 21
-1161.23034776
 31
0.0
  0
INSERT
  8
LAYER0017
  6
CONTINUOUS
 62
       7
  5
54A
  2
_OPEN30
 10
637.49043111
 20
-1161.23034776
 30
0.0
 41
30.00002788
 42
29.99989274
 50
180.0
  0
TEXT
  8
LAYER0017
 62
       7
  5
54B
 10
543.49043111
 20
-897.43819522
 30
0.0
 40
30.0
  1
70
 41
0.8
 72
       5
 11
591.49043111
 21
-897.43819522
 31
0.0
  0
TEXT
  8
LAYER0017
 62
       7
  5
54C
 10
765.02513685
 20
-1070.46266514
 30
0.0
 40
30.0
  1
40
 50
90.0
 41
0.8
 72
       5
 11
765.02513685
 21
-1022.46266514
 31
0.0
  0
TEXT
  8
LAYER0017
 62
       7
  5
54D
 10
477.51263111
 20
-1151.23034776
 30
0.0
 40
30.0
  1
12.5
 41
0.8
 72
       5
 11
573.51263111
 21
-1151.23034776
 31
0.0
  0
ENDSEC
  0
EOF
