  0
SECTION
  2
HEADER
  9
$ACADVER
  1
AC1009
  9
$DWGCODEPAGE
  3
ansi_932
  9
$INSBASE
 10
0.0
 20
0.0
 30
0.0
  9
$EXTMIN
 10
-6962.000000000011
 20
-5073.34334649513
 30
0.0
  9
$EXTMAX
 10
7119.999999999984
 20
5083.671673247606
 30
0.0
  9
$LIMMIN
 10
-2520.0
 20
-1782.0
  9
$LIMMAX
 10
2520.0
 20
1782.0
  9
$ORTHOMODE
 70
     0
  9
$REGENMODE
 70
     1
  9
$FILLMODE
 70
     1
  9
$QTEXTMODE
 70
     0
  9
$MIRRTEXT
 70
     1
  9
$DRAGMODE
 70
     2
  9
$LTSCALE
 40
12.0
  9
$OSMODE
 70
    37
  9
$ATTMODE
 70
     1
  9
$TEXTSIZE
 40
0.2
  9
$TRACEWID
 40
0.05
  9
$TEXTSTYLE
  7
STANDARD
  9
$CLAYER
  8
0
  9
$CELTYPE
  6
BYLAYER
  9
$CECOLOR
 62
   256
  9
$DIMSCALE
 40
1.0
  9
$DIMASZ
 40
30.0
  9
$DIMEXO
 40
0.0625
  9
$DIMDLI
 40
0.38
  9
$DIMRND
 40
0.0
  9
$DIMDLE
 40
0.0
  9
$DIMEXE
 40
0.18
  9
$DIMTP
 40
0.0
  9
$DIMTM
 40
0.0
  9
$DIMTXT
 40
0.18
  9
$DIMCEN
 40
0.09
  9
$DIMTSZ
 40
0.0
  9
$DIMTOL
 70
     0
  9
$DIMLIM
 70
     0
  9
$DIMTIH
 70
     1
  9
$DIMTOH
 70
     1
  9
$DIMSE1
 70
     0
  9
$DIMSE2
 70
     0
  9
$DIMTAD
 70
     3
  9
$DIMZIN
 70
     0
  9
$DIMBLK
  1

  9
$DIMASO
 70
     1
  9
$DIMSHO
 70
     1
  9
$DIMPOST
  1

  9
$DIMAPOST
  1

  9
$DIMALT
 70
     0
  9
$DIMALTD
 70
     2
  9
$DIMALTF
 40
25.4
  9
$DIMLFAC
 40
1.0
  9
$DIMTOFL
 70
     0
  9
$DIMTVP
 40
0.0
  9
$DIMTIX
 70
     0
  9
$DIMSOXD
 70
     0
  9
$DIMSAH
 70
     0
  9
$DIMBLK1
  1

  9
$DIMBLK2
  1

  9
$DIMSTYLE
  2
STANDARD
  9
$DIMCLRD
 70
     0
  9
$DIMCLRE
 70
     0
  9
$DIMCLRT
 70
     0
  9
$DIMTFAC
 40
1.0
  9
$DIMGAP
 40
0.09
  9
$LUNITS
 70
     2
  9
$LUPREC
 70
     4
  9
$SKETCHINC
 40
0.1
  9
$FILLETRAD
 40
0.5
  9
$AUNITS
 70
     0
  9
$AUPREC
 70
     0
  9
$MENU
  1
.
  9
$ELEVATION
 40
0.0
  9
$PELEVATION
 40
0.0
  9
$THICKNESS
 40
0.0
  9
$LIMCHECK
 70
     0
  9
$CHAMFERA
 40
0.5
  9
$CHAMFERB
 40
0.5
  9
$SKPOLY
 70
     0
  9
$TDCREATE
 40
2455763.686994086
  9
$TDUPDATE
 40
2455763.686994097
  9
$TDINDWG
 40
0.0000000116
  9
$TDUSRTIMER
 40
0.0000000116
  9
$USRTIMER
 70
     1
  9
$ANGBASE
 50
0.0
  9
$ANGDIR
 70
     0
  9
$PDMODE
 70
     0
  9
$PDSIZE
 40
1.0
  9
$PLINEWID
 40
0.0
  9
$COORDS
 70
     1
  9
$SPLFRAME
 70
     0
  9
$SPLINETYPE
 70
     6
  9
$SPLINESEGS
 70
     8
  9
$ATTDIA
 70
     0
  9
$ATTREQ
 70
     1
  9
$HANDLING
 70
     1
  9
$HANDSEED
  5
650
  9
$SURFTAB1
 70
     6
  9
$SURFTAB2
 70
     6
  9
$SURFTYPE
 70
     6
  9
$SURFU
 70
     6
  9
$SURFV
 70
     6
  9
$UCSNAME
  2

  9
$UCSORG
 10
0.0
 20
0.0
 30
0.0
  9
$UCSXDIR
 10
1.0
 20
0.0
 30
0.0
  9
$UCSYDIR
 10
0.0
 20
1.0
 30
0.0
  9
$PUCSNAME
  2

  9
$PUCSORG
 10
0.0
 20
0.0
 30
0.0
  9
$PUCSXDIR
 10
1.0
 20
0.0
 30
0.0
  9
$PUCSYDIR
 10
0.0
 20
1.0
 30
0.0
  9
$USERI1
 70
     0
  9
$USERI2
 70
     0
  9
$USERI3
 70
     0
  9
$USERI4
 70
     0
  9
$USERI5
 70
     0
  9
$USERR1
 40
0.0
  9
$USERR2
 40
0.0
  9
$USERR3
 40
0.0
  9
$USERR4
 40
0.0
  9
$USERR5
 40
0.0
  9
$WORLDVIEW
 70
     1
  9
$SHADEDGE
 70
     3
  9
$SHADEDIF
 70
    70
  9
$TILEMODE
 70
     1
  9
$MAXACTVP
 70
    64
  9
$PLIMCHECK
 70
     0
  9
$PEXTMIN
 10
1.000000000000000E+20
 20
1.000000000000000E+20
 30
1.000000000000000E+20
  9
$PEXTMAX
 10
-1.000000000000000E+20
 20
-1.000000000000000E+20
 30
-1.000000000000000E+20
  9
$PLIMMIN
 10
0.0
 20
0.0
  9
$PLIMMAX
 10
12.0
 20
9.0
  9
$UNITMODE
 70
     0
  9
$VISRETAIN
 70
     0
  9
$PLINEGEN
 70
     1
  9
$PSLTSCALE
 70
     0
  0
ENDSEC
  0
SECTION
  2
TABLES
  0
TABLE
  2
VPORT
 70
     1
  0
VPORT
  2
*ACTIVE
 70
     0
 10
0.0
 20
0.0
 11
1.0
 21
1.0
 12
0.0
 22
0.0
 13
0.0
 23
0.0
 14
0.5
 24
0.5
 15
0.5
 25
0.5
 16
0.0
 26
0.0
 36
1.0
 17
78.99999999998647
 27
-15.5000000000266
 37
0.0
 40
3432.300000000002
 41
1.394947994056462
 42
50.0
 43
0.0
 44
0.0
 50
0.0
 51
0.0
 71
     0
 72
  1000
 73
     1
 74
     1
 75
     0
 76
     0
 77
     0
 78
     0
  0
ENDTAB
  0
TABLE
  2
LTYPE
 70
    28
  0
LTYPE
  2
CONTINUOUS
 70
     0
  3
Solid line
 72
    65
 73
     0
 40
0.0
  0
LTYPE
  2
HIDDENX2
 70
     0
  3
CADPAC LINETYPE
 72
    65
 73
     2
 40
8.342696629213453
 49
6.25702247191009
 49
-2.085674157303363
  0
LTYPE
  2
HIDDEN
 70
     0
  3
CADPAC LINETYPE
 72
    65
 73
     2
 40
6.25702247191009
 49
4.171348314606727
 49
-2.085674157303363
  0
LTYPE
  2
HIDDEN2
 70
     0
  3
CADPAC LINETYPE
 72
    65
 73
     2
 40
5.214185393258408
 49
3.128511235955045
 49
-2.085674157303363
  0
LTYPE
  2
DASHED
 70
     0
  3
CADPAC LINETYPE
 72
    65
 73
     2
 40
5.839887640449394
 49
4.171348314606727
 49
-1.668539325842668
  0
LTYPE
  2
DASHED2
 70
     0
  3
CADPAC LINETYPE
 72
    65
 73
     2
 40
3.754213483146031
 49
2.502808988764021
 49
-1.25140449438201
  0
LTYPE
  2
DASHEDX2
 70
     0
  3
CADPAC LINETYPE
 72
    65
 73
     2
 40
10.01123595505612
 49
8.342696629213453
 49
-1.668539325842668
  0
LTYPE
  2
DOTX2
 70
     0
  3
CADPAC LINETYPE
 72
    65
 73
     2
 40
3.649929775280896
 49
0.0
 49
-3.649929775280896
  0
LTYPE
  2
DOT
 70
     0
  3
CADPAC LINETYPE
 72
    65
 73
     2
 40
2.919943820224717
 49
0.0
 49
-2.919943820224717
  0
LTYPE
  2
DOT2
 70
     0
  3
CADPAC LINETYPE
 72
    65
 73
     2
 40
2.189957865168537
 49
0.0
 49
-2.189957865168537
  0
LTYPE
  2
CENTERX2
 70
     0
  3
CADPAC LINETYPE
 72
    65
 73
     4
 40
12.51404494382018
 49
5.214185393258408
 49
-2.607092696629204
 49
2.085674157303363
 49
-2.607092696629204
  0
LTYPE
  2
CENTER
 70
     0
  3
CADPAC LINETYPE
 72
    65
 73
     4
 40
9.594101123595472
 49
4.171348314606727
 49
-2.085674157303363
 49
1.251404494382018
 49
-2.085674157303363
  0
LTYPE
  2
CENTER2
 70
     0
  3
CADPAC LINETYPE
 72
    65
 73
     4
 40
6.674157303370762
 49
3.128511235955045
 49
-1.564255617977522
 49
0.4171348314606727
 49
-1.564255617977522
  0
LTYPE
  2
DASHDOTX2
 70
     0
  3
CADPAC LINETYPE
 72
    65
 73
     4
 40
20.02247191011228
 49
10.01123595505616
 49
-3.337078651685374
 49
3.337078651685374
 49
-3.337078651685374
  0
LTYPE
  2
DASHDOT
 70
     0
  3
CADPAC LINETYPE
 72
    65
 73
     4
 40
10.01123595505608
 49
5.00561797752808
 49
-1.668539325842668
 49
1.668539325842668
 49
-1.668539325842668
  0
LTYPE
  2
DASHDOT2
 70
     0
  3
CADPAC LINETYPE
 72
    65
 73
     4
 40
6.42387640449433
 49
3.75421348314606
 49
-1.251404494382001
 49
0.1668539325842668
 49
-1.251404494382001
  0
LTYPE
  2
DIVIDEX2
 70
     0
  3
CADPAC LINETYPE
 72
    65
 73
     6
 40
26.69662921348303
 49
10.01123595505616
 49
-3.337078651685374
 49
3.337078651685374
 49
-3.337078651685374
 49
3.337078651685374
 49
-3.337078651685374
  0
LTYPE
  2
DIVIDE
 70
     0
  3
CADPAC LINETYPE
 72
    65
 73
     6
 40
13.34831460674142
 49
5.00561797752808
 49
-1.668539325842668
 49
1.668539325842668
 49
-1.668539325842668
 49
1.668539325842668
 49
-1.668539325842668
  0
LTYPE
  2
DIVIDE2
 70
     0
  3
CADPAC LINETYPE
 72
    65
 73
     6
 40
10.01123595505607
 49
3.75421348314606
 49
-1.251404494382001
 49
1.251404494382001
 49
-1.251404494382001
 49
1.251404494382001
 49
-1.251404494382001
  0
LTYPE
  2
BORDERX2
 70
     0
  3
CADPAC LINETYPE
 72
    65
 73
     6
 40
18.24964887640443
 49
5.214185393258408
 49
-2.607092696629204
 49
5.214185393258408
 49
-2.607092696629204
 49
0.0
 49
-2.607092696629204
  0
LTYPE
  2
BORDER
 70
     0
  3
CADPAC LINETYPE
 72
    65
 73
     6
 40
14.59971910112354
 49
4.171348314606727
 49
-2.085674157303363
 49
4.171348314606727
 49
-2.085674157303363
 49
0.0
 49
-2.085674157303363
  0
LTYPE
  2
BORDER2
 70
     0
  3
CADPAC LINETYPE
 72
    65
 73
     6
 40
10.84550561797747
 49
3.337078651685374
 49
-2.085674157303363
 49
1.25140449438201
 49
-2.085674157303363
 49
0.0
 49
-2.085674157303363
  0
LTYPE
  2
PHANTOMX2
 70
     0
  3
CADPAC LINETYPE
 72
    65
 73
     6
 40
15.64255617977523
 49
5.214185393258408
 49
-2.085674157303363
 49
2.085674157303363
 49
-2.085674157303363
 49
2.085674157303363
 49
-2.085674157303363
  0
LTYPE
  2
PHANTOM
 70
     0
  3
CADPAC LINETYPE
 72
    65
 73
     6
 40
12.93117977528085
 49
4.171348314606727
 49
-2.085674157303363
 49
1.251404494382018
 49
-2.085674157303363
 49
1.251404494382018
 49
-2.085674157303363
  0
LTYPE
  2
PHANTOM2
 70
     0
  3
CADPAC LINETYPE
 72
    65
 73
     6
 40
11.05407303370783
 49
3.128511235955045
 49
-2.085674157303363
 49
0.8342696629213453
 49
-2.085674157303363
 49
0.8342696629213453
 49
-2.085674157303363
  0
LTYPE
  2
ACAD_ISO06W100
 70
     0
  3
CADPAC LINETYPE
 72
    65
 73
     8
 40
22.10814606741565
 49
10.01123595505616
 49
-2.085674157303363
 49
1.25140449438201
 49
-2.085674157303363
 49
1.25140449438201
 49
-2.085674157303363
 49
1.25140449438201
 49
-2.085674157303363
  0
LTYPE
  2
ACAD_ISO13W100
 70
     0
  3
CADPAC LINETYPE
 72
    65
 73
     8
 40
16.68539325842691
 49
4.171348314606727
 49
-2.085674157303363
 49
4.171348314606727
 49
-2.085674157303363
 49
0.0
 49
-2.085674157303363
 49
0.0
 49
-2.085674157303363
  0
LTYPE
  2
ACAD_ISO14W100
 70
     0
  3
CADPAC LINETYPE
 72
    65
 73
     8
 40
12.51404494382018
 49
4.171348314606727
 49
-2.085674157303363
 49
0.0
 49
-2.085674157303363
 49
0.0
 49
-2.085674157303363
 49
0.0
 49
-2.085674157303363
  0
ENDTAB
  0
TABLE
  2
LAYER
 70
     8
  0
LAYER
  2
0
 70
     0
 62
     7
  6
CONTINUOUS
  0
LAYER
  2
｡｡VV
 70
     0
 62
     7
  6
CONTINUOUS
  0
LAYER
  2
LAYER0010
 70
     0
 62
     7
  6
CONTINUOUS
  0
LAYER
  2
LAYER0015
 70
     0
 62
     7
  6
CONTINUOUS
  0
LAYER
  2
LAYER0016
 70
     0
 62
     7
  6
CONTINUOUS
  0
LAYER
  2
LAYER0023
 70
     0
 62
     7
  6
CONTINUOUS
  0
LAYER
  2
LAYER0031
 70
     0
 62
     7
  6
CONTINUOUS
  0
LAYER
  2
ZUWAKU
 70
     0
 62
     7
  6
CONTINUOUS
  0
ENDTAB
  0
TABLE
  2
STYLE
 70
     2
  0
STYLE
  2
STANDARD
 70
     0
 40
0.0
 41
1.0
 50
0.0
 71
     0
 42
0.2
  3
txt
  4

  0
STYLE
  2
FDASTYLE0
 70
     0
 40
60.0
 41
0.7564935064935068
 50
0.0
 71
     0
 42
0.2
  3
txt.shx
  4
bigfont
  0
ENDTAB
  0
TABLE
  2
VIEW
 70
     0
  0
ENDTAB
  0
TABLE
  2
UCS
 70
     0
  0
ENDTAB
  0
TABLE
  2
APPID
 70
     2
  0
APPID
  2
ACAD
 70
     0
  0
APPID
  2
DAFUSIONOUT
 70
     0
  0
ENDTAB
  0
TABLE
  2
DIMSTYLE
 70
     1
  0
DIMSTYLE
  2
STANDARD
 70
     0
  3

  4

  5

  6

  7

 40
1.0
 41
0.18
 42
0.0625
 43
0.38
 44
0.18
 45
0.0
 46
0.0
 47
0.0
 48
0.0
140
0.18
141
0.09
142
0.0
143
25.4
144
1.0
145
0.0
146
1.0
147
0.09
 71
     0
 72
     0
 73
     1
 74
     1
 75
     0
 76
     0
 77
     0
 78
     0
170
     0
171
     2
172
     0
173
     0
174
     0
175
     0
176
     0
177
     0
178
     0
  0
ENDTAB
  0
ENDSEC
  0
SECTION
  2
BLOCKS
  0
BLOCK
  8
0
  2
$MODEL_SPACE
 70
     0
 10
0.0
 20
0.0
 30
0.0
  3
$MODEL_SPACE
  1

  0
ENDBLK
  5
21
  8
0
  0
BLOCK
 67
     1
  8
0
  2
$PAPER_SPACE
 70
     0
 10
0.0
 20
0.0
 30
0.0
  3
$PAPER_SPACE
  1

  0
ENDBLK
  5
1D
 67
     1
  8
0
  0
BLOCK
  8
0
  2
DA_IMAGEDIMGROUP_1
 70
     0
 10
0.0
 20
0.0
 30
0.0
  3
DA_IMAGEDIMGROUP_1
  1

  0
LINE
  5
117
  8
LAYER0015
 62
     4
 10
1350.271794358199
 20
421.02082629516
 30
0.0
 11
1350.271794358199
 21
588.1973780425738
 31
0.0
  0
LINE
  5
118
  8
LAYER0015
 62
     4
 10
625.7276384809143
 20
421.02082629516
 30
0.0
 11
625.7276384809143
 21
588.1973780425738
 31
0.0
  0
LINE
  5
119
  8
LAYER0015
 62
     4
 10
1350.271794358199
 20
563.1973780425738
 30
0.0
 11
625.7276384809143
 21
563.1973780425738
 31
0.0
  0
INSERT
  5
120
  8
LAYER0015
 62
     4
  2
_OPEN30
 10
1350.271794358199
 20
563.1973780425738
 30
0.0
 41
36.00003345389238
 42
35.99987128774157
 50
360.0
  0
INSERT
  5
121
  8
LAYER0015
 62
     4
  2
_OPEN30
 10
625.7276384809143
 20
563.1973780425738
 30
0.0
 41
36.00003345389238
 42
35.99987128774157
 50
180.0
  0
TEXT
  5
123
  8
LAYER0015
 62
    32
 10
918.0997164195566
 20
575.1973780425738
 30
0.0
 40
60.0
  1
725
 41
0.7564935064935068
  7
FDASTYLE0
 72
     5
 11
1057.899716419557
 21
575.1973780425738
 31
0.0
  0
ENDBLK
  5
53
  8
0
  0
BLOCK
  8
0
  2
DA_IMAGEDIMGROUP_2
 70
     0
 10
0.0
 20
0.0
 30
0.0
  3
DA_IMAGEDIMGROUP_2
  1

  0
LINE
  5
124
  8
LAYER0015
 62
     4
 10
-1920.068943021713
 20
841.9812075646712
 30
0.0
 11
179.9310569782857
 21
841.9812075646712
 31
0.0
  0
INSERT
  5
125
  8
LAYER0015
 62
     4
  2
_OPEN30
 10
-1920.068943021713
 20
841.9812075646712
 30
0.0
 41
36.00003345389238
 42
35.99987128774157
 50
180.0
  0
INSERT
  5
126
  8
LAYER0015
 62
     4
  2
_OPEN30
 10
179.9310569782857
 20
841.9812075646712
 30
0.0
 41
36.00003345389238
 42
35.99987128774157
 50
360.0
  0
LINE
  5
127
  8
LAYER0015
 62
     4
 10
-1920.068943021713
 20
464.3259128227919
 30
0.0
 11
-1920.068943021713
 21
851.9812075646712
 31
0.0
  0
LINE
  5
128
  8
LAYER0015
 62
     4
 10
179.9310569782857
 20
464.3259128227919
 30
0.0
 11
179.9310569782857
 21
851.9812075646712
 31
0.0
  0
TEXT
  5
129
  8
LAYER0015
 62
    32
 10
-963.6689430217136
 20
856.9812075646712
 30
0.0
 40
60.0
  1
2100
 41
0.7572815533980585
  7
FDASTYLE0
 72
     5
 11
-776.4689430217136
 21
856.9812075646712
 31
0.0
  0
ENDBLK
  5
56
  8
0
  0
BLOCK
  8
0
  2
DA_IMAGEDIMGROUP_3
 70
     0
 10
0.0
 20
0.0
 30
0.0
  3
DA_IMAGEDIMGROUP_3
  1

  0
LINE
  5
12A
  8
LAYER0015
 62
     4
 10
1481.457347227324
 20
408.02082629516
 30
0.0
 11
1481.457347227324
 21
449.3259128227919
 31
0.0
  0
LINE
  5
12B
  8
LAYER0015
 62
     4
 10
1364.271794358199
 20
408.02082629516
 30
0.0
 11
1491.457347227324
 21
408.02082629516
 31
0.0
  0
LINE
  5
12C
  8
LAYER0015
 62
     4
 10
1317.096650145476
 20
449.3259128227919
 30
0.0
 11
1491.457347227324
 21
449.3259128227919
 31
0.0
  0
LINE
  5
12D
  8
LAYER0015
 62
     4
 10
1481.457347227324
 20
646.9926128227917
 30
0.0
 11
1481.457347227324
 21
449.3259128227919
 31
0.0
  0
INSERT
  5
12E
  8
LAYER0015
 62
     4
  2
_OPEN30
 10
1481.457347227324
 20
449.3259128227919
 30
0.0
 41
36.00003345389238
 42
35.99987128774157
 50
270.0
  0
LINE
  5
12F
  8
LAYER0015
 62
     4
 10
1481.457347227324
 20
358.02082629516
 30
0.0
 11
1481.457347227324
 21
408.02082629516
 31
0.0
  0
INSERT
  5
130
  8
LAYER0015
 62
     4
  2
_OPEN30
 10
1481.457347227324
 20
408.02082629516
 30
0.0
 41
36.00003345389238
 42
35.99987128774157
 50
90.0
  0
TEXT
  5
131
  8
LAYER0015
 62
     4
 10
1471.457347227324
 20
519.7926128227919
 30
0.0
 40
36.0
  1
41.3
 50
90.0
 41
0.8000000000000003
  7
FDASTYLE0
 72
     5
 11
1471.457347227324
 21
634.9926128227919
 31
0.0
  0
ENDBLK
  5
59
  8
0
  0
BLOCK
  8
0
  2
DA_IMAGEDIMGROUP_4
 70
     0
 10
0.0
 20
0.0
 30
0.0
  3
DA_IMAGEDIMGROUP_4
  1

  0
LINE
  5
132
  8
LAYER0015
 62
     4
 10
1609.655696365046
 20
-624.1740871772099
 30
0.0
 11
1609.655696365046
 21
449.3259128227919
 31
0.0
  0
INSERT
  5
133
  8
LAYER0015
 62
     4
  2
_OPEN30
 10
1609.655696365046
 20
-624.1740871772099
 30
0.0
 41
36.00003345389238
 42
35.99987128774157
 50
270.0
  0
INSERT
  5
134
  8
LAYER0015
 62
     4
  2
_OPEN30
 10
1609.655696365046
 20
449.3259128227919
 30
0.0
 41
36.00003345389238
 42
35.99987128774157
 50
90.0
  0
LINE
  5
135
  8
LAYER0015
 62
     4
 10
1045.699716419523
 20
-624.1740871772099
 30
0.0
 11
1619.655696365046
 21
-624.1740871772099
 31
0.0
  0
LINE
  5
136
  8
LAYER0015
 62
     4
 10
1317.096650145476
 20
449.3259128227919
 30
0.0
 11
1619.655696365046
 21
449.3259128227919
 31
0.0
  0
TEXT
  5
137
  8
LAYER0015
 62
    32
 10
1597.655696365046
 20
-181.0240871772089
 30
0.0
 40
60.0
  1
1074
 50
90.0
 41
0.7572815533980576
  7
FDASTYLE0
 72
     5
 11
1597.655696365046
 21
6.175912822790878
 31
0.0
  0
ENDBLK
  5
5C
  8
0
  0
BLOCK
  8
0
  2
DA_IMAGEDIMGROUP_5
 70
     0
 10
0.0
 20
0.0
 30
0.0
  3
DA_IMAGEDIMGROUP_5
  1

  0
LINE
  5
138
  8
LAYER0015
 62
     4
 10
-1720.068943021097
 20
539.4331035996465
 30
0.0
 11
-20.06894302233093
 21
539.4331035996465
 31
0.0
  0
INSERT
  5
139
  8
LAYER0015
 62
     4
  2
_OPEN30
 10
-1720.068943021097
 20
539.4331035996465
 30
0.0
 41
36.00003345389238
 42
35.99987128774157
 50
180.0
  0
INSERT
  5
13A
  8
LAYER0015
 62
     4
  2
_OPEN30
 10
-20.06894302233093
 20
539.4331035996465
 30
0.0
 41
36.00003345389238
 42
35.99987128774157
 50
360.0
  0
LINE
  5
13B
  8
LAYER0015
 62
     4
 10
-1720.068943021097
 20
456.6743050048938
 30
0.0
 11
-1720.068943021097
 21
549.4331035996465
 31
0.0
  0
LINE
  5
13C
  8
LAYER0015
 62
     4
 10
-20.06894302233093
 20
456.6743050048938
 30
0.0
 11
-20.06894302233093
 21
549.4331035996465
 31
0.0
  0
TEXT
  5
13D
  8
LAYER0015
 62
     4
 10
-1100.468943021714
 20
554.4331035996465
 30
0.0
 40
36.0
  1
取付ボルトピッチ最小値　1700
 41
0.6956521739130435
  7
FDASTYLE0
 72
     5
 11
-639.6689430217141
 21
554.4331035996465
 31
0.0
  0
ENDBLK
  5
5F
  8
0
  0
BLOCK
  8
0
  2
DA_IMAGEDIMGROUP_6
 70
     0
 10
0.0
 20
0.0
 30
0.0
  3
DA_IMAGEDIMGROUP_6
  1

  0
LINE
  5
13E
  8
LAYER0015
 62
     4
 10
-1770.068943021038
 20
641.9917829098245
 30
0.0
 11
29.93105697760996
 21
641.9917829098245
 31
0.0
  0
INSERT
  5
13F
  8
LAYER0015
 62
     4
  2
_OPEN30
 10
-1770.068943021038
 20
641.9917829098245
 30
0.0
 41
36.00003345389238
 42
35.99987128774157
 50
180.0
  0
INSERT
  5
140
  8
LAYER0015
 62
     4
  2
_OPEN30
 10
29.93105697760996
 20
641.9917829098245
 30
0.0
 41
36.00003345389238
 42
35.99987128774157
 50
360.0
  0
LINE
  5
141
  8
LAYER0015
 62
     4
 10
-1770.068943021038
 20
455.1759672662263
 30
0.0
 11
-1770.068943021038
 21
651.9917829098245
 31
0.0
  0
LINE
  5
142
  8
LAYER0015
 62
     4
 10
29.93105697760996
 20
455.1759672662263
 30
0.0
 11
29.93105697760996
 21
651.9917829098245
 31
0.0
  0
TEXT
  5
143
  8
LAYER0015
 62
     4
 10
-985.2689430217141
 20
656.9917829098245
 30
0.0
 40
36.0
  1
ピッチ　1800
 41
0.7272727272727276
  7
FDASTYLE0
 72
     5
 11
-754.868943021714
 21
656.9917829098245
 31
0.0
  0
ENDBLK
  5
62
  8
0
  0
BLOCK
  8
0
  2
DA_IMAGEDIMGROUP_7
 70
     0
 10
0.0
 20
0.0
 30
0.0
  3
DA_IMAGEDIMGROUP_7
  1

  0
LINE
  5
144
  8
LAYER0015
 62
     4
 10
-1820.068943021097
 20
734.2945942889845
 30
0.0
 11
79.93105697766907
 21
734.2945942889845
 31
0.0
  0
INSERT
  5
145
  8
LAYER0015
 62
     4
  2
_OPEN30
 10
-1820.068943021097
 20
734.2945942889845
 30
0.0
 41
36.00003345389238
 42
35.99987128774157
 50
180.0
  0
INSERT
  5
146
  8
LAYER0015
 62
     4
  2
_OPEN30
 10
79.93105697766907
 20
734.2945942889845
 30
0.0
 41
36.00003345389238
 42
35.99987128774157
 50
360.0
  0
LINE
  5
147
  8
LAYER0015
 62
     4
 10
-1820.068943021097
 20
455.3102804250542
 30
0.0
 11
-1820.068943021097
 21
744.2945942889845
 31
0.0
  0
LINE
  5
148
  8
LAYER0015
 62
     4
 10
79.93105697766907
 20
455.3102804250542
 30
0.0
 11
79.93105697766907
 21
744.2945942889845
 31
0.0
  0
TEXT
  5
149
  8
LAYER0015
 62
     4
 10
-1100.468943021714
 20
749.2945942889845
 30
0.0
 40
36.0
  1
取付ボルトピッチ最大値　1900
 41
0.6956521739130435
  7
FDASTYLE0
 72
     5
 11
-639.6689430217141
 21
749.2945942889845
 31
0.0
  0
ENDBLK
  5
65
  8
0
  0
BLOCK
  8
0
  2
DA_IMAGEDIMGROUP_8
 70
     0
 10
0.0
 20
0.0
 30
0.0
  3
DA_IMAGEDIMGROUP_8
  1

  0
LINE
  5
14A
  8
LAYER0015
 62
     4
 10
209.7297237811183
 20
-137.6740871772098
 30
0.0
 11
209.7297237811183
 21
-97.67408717721355
 31
0.0
  0
LINE
  5
14B
  8
LAYER0015
 62
     4
 10
63.3890085455306
 20
-137.6740871772098
 30
0.0
 11
219.7297237811183
 21
-137.6740871772098
 31
0.0
  0
LINE
  5
14C
  8
LAYER0015
 62
     4
 10
61.98695773138729
 20
-97.67408717721355
 30
0.0
 11
219.7297237811183
 21
-97.67408717721355
 31
0.0
  0
LINE
  5
14D
  8
LAYER0015
 62
     4
 10
63.3890085455306
 20
-57.67408717720983
 30
0.0
 11
219.7297237811183
 21
-57.67408717720983
 31
0.0
  0
LINE
  5
14E
  8
LAYER0015
 62
     4
 10
209.7297237811183
 20
-97.67408717721355
 30
0.0
 11
209.7297237811183
 21
-57.67408717720983
 31
0.0
  0
INSERT
  5
154
  8
LAYER0015
 62
     4
  2
_DOT
 10
209.7297237811183
 20
-97.67408717721355
 30
0.0
 41
30.0
 42
30.0
 50
270.0
  0
LINE
  5
155
  8
LAYER0015
 62
     4
 10
209.7297237811182
 20
-815.2038252854752
 30
0.0
 11
209.7297237811183
 21
-137.6740871772098
 31
0.0
  0
INSERT
  5
156
  8
LAYER0015
 62
     4
  2
_OPEN30
 10
209.7297237811183
 20
-137.6740871772098
 30
0.0
 41
36.00003345389238
 42
35.99987128774157
 50
89.99999999999999
  0
LINE
  5
157
  8
LAYER0015
 62
     4
 10
209.7297237811183
 20
54.96356587047589
 30
0.0
 11
209.7297237811183
 21
-57.67408717720983
 31
0.0
  0
INSERT
  5
158
  8
LAYER0015
 62
     4
  2
_OPEN30
 10
209.7297237811183
 20
-57.67408717720983
 30
0.0
 41
36.00003345389238
 42
35.99987128774157
 50
270.0
  0
TEXT
  5
159
  8
LAYER0015
 62
     4
 10
199.7297237811183
 20
-803.2038252854752
 30
0.0
 40
36.0
  1
タンク位置（低）で３段切り替え　ピッチ40
 50
90.0
 41
0.6774193548387097
  7
FDASTYLE0
 72
     5
 11
199.7297237811183
 21
-198.4038252854752
 31
0.0
  0
TEXT
  5
15A
  8
LAYER0015
 62
     4
 10
199.7297237811183
 20
-14.63643412952413
 30
0.0
 40
36.0
  1
40
 50
90.0
 41
0.8000000000000003
  7
FDASTYLE0
 72
     5
 11
199.7297237811183
 21
42.96356587047589
 31
0.0
  0
ENDBLK
  5
68
  8
0
  0
BLOCK
  8
0
  2
DA_IMAGEDIMGROUP_9
 70
     0
 10
0.0
 20
0.0
 30
0.0
  3
DA_IMAGEDIMGROUP_9
  1

  0
LINE
  5
15B
  8
LAYER0015
 62
     4
 10
-4.568943023075804
 20
190.3639367877935
 30
0.0
 11
65.4310569769724
 21
190.3639367877935
 31
0.0
  0
LINE
  5
15C
  8
LAYER0015
 62
     4
 10
-110.766108074515
 20
190.3639367877935
 30
0.0
 11
-4.568943023075804
 21
190.3639367877935
 31
0.0
  0
INSERT
  5
15D
  8
LAYER0015
 62
     4
  2
_OPEN30
 10
-4.568943023075804
 20
190.3639367877935
 30
0.0
 41
36.00003345389238
 42
35.99987128774157
 50
360.0
  0
LINE
  5
15E
  8
LAYER0015
 62
     4
 10
115.4310569769724
 20
190.3639367877935
 30
0.0
 11
65.4310569769724
 21
190.3639367877935
 31
0.0
  0
INSERT
  5
15F
  8
LAYER0015
 62
     4
  2
_OPEN30
 10
65.4310569769724
 20
190.3639367877935
 30
0.0
 41
36.00003345389238
 42
35.99987128774157
 50
180.0
  0
TEXT
  5
160
  8
LAYER0015
 62
     4
 10
-110.3661080745149
 20
200.3639367877935
 30
0.0
 40
36.0
  1
70
 41
0.7999999999999999
  7
FDASTYLE0
 72
     5
 11
-52.76610807451493
 21
200.3639367877935
 31
0.0
  0
ENDBLK
  5
6B
  8
0
  0
BLOCK
  8
0
  2
DA_IMAGEDIMGROUP_10
 70
     0
 10
0.0
 20
0.0
 30
0.0
  3
DA_IMAGEDIMGROUP_10
  1

  0
LINE
  5
161
  8
LAYER0015
 62
     4
 10
982.6997164195172
 20
165.4661298147637
 30
0.0
 11
1030.699716419523
 21
165.4661298147637
 31
0.0
  0
LINE
  5
162
  8
LAYER0015
 62
     4
 10
1137.069922873225
 20
165.4661298147637
 30
0.0
 11
1030.699716419523
 21
165.4661298147637
 31
0.0
  0
INSERT
  5
163
  8
LAYER0015
 62
     4
  2
_OPEN30
 10
1030.699716419523
 20
165.4661298147637
 30
0.0
 41
36.00003345389238
 42
35.99987128774157
 50
180.0
  0
LINE
  5
164
  8
LAYER0015
 62
     4
 10
932.6997164195172
 20
165.4661298147637
 30
0.0
 11
982.6997164195172
 21
165.4661298147637
 31
0.0
  0
INSERT
  5
165
  8
LAYER0015
 62
     4
  2
_OPEN30
 10
982.6997164195172
 20
165.4661298147637
 30
0.0
 41
36.00003345389238
 42
35.99987128774157
 50
360.0
  0
TEXT
  5
166
  8
LAYER0015
 62
     4
 10
1079.069922873225
 20
175.4661298147637
 30
0.0
 40
36.0
  1
48
 41
0.7999999999999987
  7
FDASTYLE0
 72
     5
 11
1136.669922873225
 21
175.4661298147637
 31
0.0
  0
ENDBLK
  5
6E
  8
0
  0
BLOCK
  8
0
  2
DC_GROUP_1
 70
     0
 10
0.0
 20
0.0
 30
0.0
  3
DC_GROUP_1
  1

  0
TEXT
  5
167
  8
ZUWAKU
 62
     4
 10
1389.861560869648
 20
-970.2667419434657
 30
0.0
 40
42.0
  1
＠　エア抜きパイプは付属の短ﾀｲﾌﾟに交換してください
 41
0.6835443037974683
  7
FDASTYLE0
 72
     5
 11
2297.061560869648
 21
-970.2667419434657
 31
0.0
  0
LINE
  5
168
  8
ZUWAKU
 62
     6
 10
1385.661560869648
 20
-974.4667419434659
 30
0.0
 11
2301.261560869648
 21
-974.4667419434659
 31
0.0
  0
ENDBLK
  5
71
  8
0
  0
BLOCK
  8
0
  2
DC_GROUP_2
 70
     0
 10
0.0
 20
0.0
 30
0.0
  3
DC_GROUP_2
  1

  0
LINE
  5
169
  8
ZUWAKU
 62
     3
 10
1237.999999999986
 20
-1293.000000000026
 30
0.0
 11
1237.999999999986
 21
-1698.000000000027
 31
0.0
  0
LINE
  5
16A
  8
ZUWAKU
 62
     3
 10
1237.999999999986
 20
-1338.000000000026
 30
0.0
 11
2425.999999999986
 21
-1338.000000000026
 31
0.0
  0
LINE
  5
16B
  8
ZUWAKU
 62
     3
 10
2425.999999999985
 20
-1293.00000000003
 30
0.0
 11
1237.999999999986
 21
-1293.00000000003
 31
0.0
  0
LINE
  5
16C
  8
ZUWAKU
 62
     4
 10
1939.999999999987
 20
-1482.000000000026
 30
0.0
 11
1939.999999999988
 21
-1572.000000000027
 31
0.0
  0
LINE
  5
16D
  8
ZUWAKU
 62
     4
 10
2002.999999999986
 20
-1338.000000000026
 30
0.0
 11
2002.999999999986
 21
-1482.000000000026
 31
0.0
  0
LINE
  5
16E
  8
ZUWAKU
 62
     4
 10
1237.999999999986
 20
-1482.000000000027
 30
0.0
 11
2425.999999999986
 21
-1482.000000000026
 31
0.0
  0
LINE
  5
16F
  8
ZUWAKU
 62
     4
 10
2425.999999999986
 20
-1572.000000000027
 30
0.0
 11
1237.999999999986
 21
-1572.000000000027
 31
0.0
  0
LINE
  5
170
  8
ZUWAKU
 62
     4
 10
1300.999999999986
 20
-1338.000000000026
 30
0.0
 11
1300.999999999986
 21
-1572.000000000027
 31
0.0
  0
LINE
  5
171
  8
ZUWAKU
 62
     4
 10
2002.999999999987
 20
-1482.000000000026
 30
0.0
 11
2002.999999999987
 21
-1572.000000000027
 31
0.0
  0
LINE
  5
172
  8
ZUWAKU
 62
     4
 10
2065.999999999982
 20
-1338.000000000026
 30
0.0
 11
2065.999999999982
 21
-1482.000000000026
 31
0.0
  0
LINE
  5
173
  8
ZUWAKU
 62
     4
 10
1831.999999999988
 20
-1482.000000000027
 30
0.0
 11
1831.999999999988
 21
-1698.000000000026
 31
0.0
  0
LINE
  5
174
  8
ZUWAKU
 62
     4
 10
1768.999999999988
 20
-1482.000000000027
 30
0.0
 11
1768.999999999988
 21
-1572.000000000027
 31
0.0
  0
LINE
  5
175
  8
ZUWAKU
 62
     4
 10
1660.999999999988
 20
-1482.000000000027
 30
0.0
 11
1660.999999999988
 21
-1572.000000000027
 31
0.0
  0
LINE
  5
176
  8
ZUWAKU
 62
     4
 10
1597.999999999988
 20
-1482.000000000027
 30
0.0
 11
1597.999999999988
 21
-1572.000000000027
 31
0.0
  0
LINE
  5
177
  8
ZUWAKU
 62
     4
 10
1336.999999999986
 20
-1572.000000000027
 30
0.0
 11
1336.999999999986
 21
-1698.000000000026
 31
0.0
  0
LINE
  5
178
  8
ZUWAKU
 62
     4
 10
1237.999999999986
 20
-1293.000000000026
 30
0.0
 11
2425.999999999985
 21
-1293.00000000003
 31
0.0
  0
ARC
  5
179
  8
ZUWAKU
 62
     4
 10
1948.953360936457
 20
-1608.557728715409
 30
0.0
 40
0.7809640024405483
 50
89.99999999999885
 51
269.9999999999988
  0
LINE
  5
17A
  8
ZUWAKU
 62
     4
 10
1948.953360936457
 20
-1609.338692717843
 30
0.0
 11
1956.372518959639
 21
-1609.338692717843
 31
0.0
  0
ARC
  5
17B
  8
ZUWAKU
 62
     4
 10
1956.372518959639
 20
-1621.443634755683
 30
0.0
 40
12.10494203782794
 50
0.0000000000000114
 51
89.99999999999905
  0
LINE
  5
17C
  8
ZUWAKU
 62
     4
 10
1968.477460997472
 20
-1621.443634755683
 30
0.0
 11
1968.477460997472
 21
-1671.034848910654
 31
0.0
  0
LINE
  5
17D
  8
ZUWAKU
 62
     4
 10
1968.477460997472
 20
-1671.034848910654
 30
0.0
 11
1855.237680643591
 21
-1671.034848910654
 31
0.0
  0
LINE
  5
17E
  8
ZUWAKU
 62
     4
 10
1855.237680643591
 20
-1671.034848910654
 30
0.0
 11
1855.237680643591
 21
-1621.443634755683
 31
0.0
  0
ARC
  5
17F
  8
ZUWAKU
 62
     4
 10
1867.342622681423
 20
-1621.443634755683
 30
0.0
 40
12.10494203782794
 50
90.0000000000001
 51
179.9999999999999
  0
LINE
  5
180
  8
ZUWAKU
 62
     4
 10
1867.342622681423
 20
-1609.338692717843
 30
0.0
 11
1874.761780704605
 21
-1609.338692717843
 31
0.0
  0
ARC
  5
181
  8
ZUWAKU
 62
     4
 10
1874.761780704605
 20
-1608.557728715409
 30
0.0
 40
0.7809640024405411
 50
270.0000000000001
 51
450.0000000000004
  0
LINE
  5
182
  8
ZUWAKU
 62
     4
 10
1874.761780704605
 20
-1607.776764712976
 30
0.0
 11
1867.342622681423
 21
-1607.776764712976
 31
0.0
  0
ARC
  5
183
  8
ZUWAKU
 62
     4
 10
1867.342622681423
 20
-1621.443634755683
 30
0.0
 40
13.66687004270897
 50
90.00000000000058
 51
179.9999999999999
  0
LINE
  5
184
  8
ZUWAKU
 62
     4
 10
1853.675752638716
 20
-1621.443634755683
 30
0.0
 11
1853.675752638716
 21
-1672.596776915537
 31
0.0
  0
LINE
  5
185
  8
ZUWAKU
 62
     4
 10
1853.675752638716
 20
-1672.596776915537
 30
0.0
 11
1970.039389002347
 21
-1672.596776915537
 31
0.0
  0
LINE
  5
186
  8
ZUWAKU
 62
     4
 10
1970.039389002347
 20
-1672.596776915537
 30
0.0
 11
1970.039389002347
 21
-1621.443634755683
 31
0.0
  0
ARC
  5
187
  8
ZUWAKU
 62
     4
 10
1956.372518959639
 20
-1621.443634755683
 30
0.0
 40
13.66687004270897
 50
0.0000000000000114
 51
89.99999999999905
  0
LINE
  5
188
  8
ZUWAKU
 62
     4
 10
1956.372518959639
 20
-1607.776764712976
 30
0.0
 11
1948.953360936457
 21
-1607.776764712976
 31
0.0
  0
LINE
  5
189
  8
ZUWAKU
 62
     4
 10
1937.184579142191
 20
-1650.272982489988
 30
0.0
 11
1937.378836068073
 21
-1648.790799763067
 31
0.0
  0
LINE
  5
18A
  8
ZUWAKU
 62
     4
 10
1937.378836068073
 20
-1648.790799763067
 30
0.0
 11
1937.390747970499
 21
-1647.284740433898
 31
0.0
  0
LINE
  5
18B
  8
ZUWAKU
 62
     4
 10
1937.390747970499
 20
-1647.284740433898
 30
0.0
 11
1937.220224192689
 21
-1645.76626652337
 31
0.0
  0
LINE
  5
18C
  8
ZUWAKU
 62
     4
 10
1937.220224192689
 20
-1645.76626652337
 30
0.0
 11
1936.868562523569
 21
-1644.246934534839
 31
0.0
  0
LINE
  5
18D
  8
ZUWAKU
 62
     4
 10
1936.868562523569
 20
-1644.246934534839
 30
0.0
 11
1936.338439320766
 21
-1642.738307502129
 31
0.0
  0
LINE
  5
18E
  8
ZUWAKU
 62
     4
 10
1936.338439320766
 20
-1642.738307502129
 30
0.0
 11
1936.229649927674
 21
-1642.508786644306
 31
0.0
  0
LINE
  5
18F
  8
ZUWAKU
 62
     4
 10
1932.748982905686
 20
-1637.282130572804
 30
0.0
 11
1932.533680102181
 21
-1637.037432751425
 31
0.0
  0
LINE
  5
190
  8
ZUWAKU
 62
     4
 10
1932.533680102181
 20
-1637.037432751425
 30
0.0
 11
1931.197646991768
 21
-1635.749897715637
 31
0.0
  0
LINE
  5
191
  8
ZUWAKU
 62
     4
 10
1931.197646991768
 20
-1635.749897715637
 30
0.0
 11
1929.726311439072
 21
-1634.537735216497
 31
0.0
  0
LINE
  5
192
  8
ZUWAKU
 62
     4
 10
1929.726311439072
 20
-1634.537735216497
 30
0.0
 11
1928.130871196066
 21
-1633.410170542572
 31
0.0
  0
LINE
  5
193
  8
ZUWAKU
 62
     4
 10
1928.130871196066
 20
-1633.410170542572
 30
0.0
 11
1926.423468526347
 21
-1632.375785141859
 31
0.0
  0
LINE
  5
194
  8
ZUWAKU
 62
     4
 10
1926.423468526347
 20
-1632.375785141859
 30
0.0
 11
1924.617097795188
 21
-1631.442451311829
 31
0.0
  0
LINE
  5
195
  8
ZUWAKU
 62
     4
 10
1924.617097795188
 20
-1631.442451311829
 30
0.0
 11
1922.725506574583
 21
-1630.617272286504
 31
0.0
  0
LINE
  5
196
  8
ZUWAKU
 62
     4
 10
1922.725506574583
 20
-1630.617272286504
 30
0.0
 11
1920.763091015877
 21
-1629.906528176515
 31
0.0
  0
LINE
  5
197
  8
ZUWAKU
 62
     4
 10
1920.763091015877
 20
-1629.906528176515
 30
0.0
 11
1918.744786286427
 21
-1629.315628173711
 31
0.0
  0
LINE
  5
198
  8
ZUWAKU
 62
     4
 10
1918.744786286427
 20
-1629.315628173711
 30
0.0
 11
1916.685952903898
 21
-1628.849069383897
 31
0.0
  0
LINE
  5
199
  8
ZUWAKU
 62
     4
 10
1916.685952903898
 20
-1628.849069383897
 30
0.0
 11
1914.602259833489
 21
-1628.510402601182
 31
0.0
  0
LINE
  5
19A
  8
ZUWAKU
 62
     4
 10
1914.602259833489
 20
-1628.510402601182
 30
0.0
 11
1912.509565237644
 21
-1628.302205284269
 31
0.0
  0
LINE
  5
19B
  8
ZUWAKU
 62
     4
 10
1912.509565237644
 20
-1628.302205284269
 30
0.0
 11
1910.423795785834
 21
-1628.226061940471
 31
0.0
  0
LINE
  5
19C
  8
ZUWAKU
 62
     4
 10
1910.423795785834
 20
-1628.226061940471
 30
0.0
 11
1908.360825443005
 21
-1628.282552066578
 31
0.0
  0
LINE
  5
19D
  8
ZUWAKU
 62
     4
 10
1908.360825443005
 20
-1628.282552066578
 30
0.0
 11
1906.336354659129
 21
-1628.471245738653
 31
0.0
  0
LINE
  5
19E
  8
ZUWAKU
 62
     4
 10
1906.336354659129
 20
-1628.471245738653
 30
0.0
 11
1904.365790879285
 21
-1628.790706883915
 31
0.0
  0
LINE
  5
19F
  8
ZUWAKU
 62
     4
 10
1904.365790879285
 20
-1628.790706883915
 30
0.0
 11
1902.464131283685
 21
-1629.238504210122
 31
0.0
  0
LINE
  5
1A0
  8
ZUWAKU
 62
     4
 10
1902.464131283685
 20
-1629.238504210122
 30
0.0
 11
1900.645848650107
 21
-1629.811229709262
 31
0.0
  0
LINE
  5
1A1
  8
ZUWAKU
 62
     4
 10
1900.645848650107
 20
-1629.811229709262
 30
0.0
 11
1898.924781207305
 21
-1630.504524594465
 31
0.0
  0
LINE
  5
1A2
  8
ZUWAKU
 62
     4
 10
1898.924781207305
 20
-1630.504524594465
 30
0.0
 11
1897.314027317727
 21
-1631.313112473007
 31
0.0
  0
LINE
  5
1A3
  8
ZUWAKU
 62
     4
 10
1897.314027317727
 20
-1631.313112473007
 30
0.0
 11
1895.825845791071
 21
-1632.230839502913
 31
0.0
  0
LINE
  5
1A4
  8
ZUWAKU
 62
     4
 10
1895.825845791071
 20
-1632.230839502913
 30
0.0
 11
1894.471562587345
 21
-1633.250721227362
 31
0.0
  0
LINE
  5
1A5
  8
ZUWAKU
 62
     4
 10
1894.471562587345
 20
-1633.250721227362
 30
0.0
 11
1893.261484619467
 21
-1634.364995730574
 31
0.0
  0
LINE
  5
1A6
  8
ZUWAKU
 62
     4
 10
1893.261484619467
 20
-1634.364995730574
 30
0.0
 11
1892.204821311435
 21
-1635.565182710779
 31
0.0
  0
LINE
  5
1A7
  8
ZUWAKU
 62
     4
 10
1892.204821311435
 20
-1635.565182710779
 30
0.0
 11
1891.949988327033
 21
-1635.928688528619
 31
0.0
  0
LINE
  5
1A8
  8
ZUWAKU
 62
     4
 10
1890.975892940435
 20
-1637.459161656915
 30
0.0
 11
1890.582677276647
 21
-1638.186173182289
 31
0.0
  0
LINE
  5
1A9
  8
ZUWAKU
 62
     4
 10
1890.582677276647
 20
-1638.186173182289
 30
0.0
 11
1890.560038881361
 21
-1638.243506604455
 31
0.0
  0
LINE
  5
1AA
  8
ZUWAKU
 62
     4
 10
1889.9998603197
 20
-1639.701525564274
 30
0.0
 11
1889.65441850863
 21
-1641.034055172674
 31
0.0
  0
LINE
  5
1AB
  8
ZUWAKU
 62
     4
 10
1889.65441850863
 20
-1641.034055172674
 30
0.0
 11
1889.460161582748
 21
-1642.516237899611
 31
0.0
  0
LINE
  5
1AC
  8
ZUWAKU
 62
     4
 10
1889.460161582748
 20
-1642.516237899611
 30
0.0
 11
1889.448249680329
 21
-1644.022297228764
 31
0.0
  0
LINE
  5
1AD
  8
ZUWAKU
 62
     4
 10
1889.448249680329
 20
-1644.022297228764
 30
0.0
 11
1889.61877345814
 21
-1645.540771139292
 31
0.0
  0
LINE
  5
1AE
  8
ZUWAKU
 62
     4
 10
1889.61877345814
 20
-1645.540771139292
 30
0.0
 11
1889.97043512726
 21
-1647.060103127823
 31
0.0
  0
LINE
  5
1AF
  8
ZUWAKU
 62
     4
 10
1889.97043512726
 20
-1647.060103127823
 30
0.0
 11
1890.500558330063
 21
-1648.568730160549
 31
0.0
  0
LINE
  5
1B0
  8
ZUWAKU
 62
     4
 10
1890.500558330063
 20
-1648.568730160549
 30
0.0
 11
1891.205108508865
 21
-1650.055170674797
 31
0.0
  0
LINE
  5
1B1
  8
ZUWAKU
 62
     4
 10
1891.205108508865
 20
-1650.055170674797
 30
0.0
 11
1892.078723611389
 21
-1651.508111960723
 31
0.0
  0
LINE
  5
1B2
  8
ZUWAKU
 62
     4
 10
1892.078723611389
 20
-1651.508111960723
 30
0.0
 11
1893.114754899209
 21
-1652.916496257841
 31
0.0
  0
LINE
  5
1B3
  8
ZUWAKU
 62
     4
 10
1893.114754899209
 20
-1652.916496257841
 30
0.0
 11
1894.305317548648
 21
-1654.269604911237
 31
0.0
  0
LINE
  5
1B4
  8
ZUWAKU
 62
     4
 10
1894.305317548648
 20
-1654.269604911237
 30
0.0
 11
1895.641350659053
 21
-1655.557139947042
 31
0.0
  0
LINE
  5
1B5
  8
ZUWAKU
 62
     4
 10
1895.641350659053
 20
-1655.557139947042
 30
0.0
 11
1897.112686211749
 21
-1656.769302446165
 31
0.0
  0
LINE
  5
1B6
  8
ZUWAKU
 62
     4
 10
1897.112686211749
 20
-1656.769302446165
 30
0.0
 11
1898.708126454763
 21
-1657.89686712009
 31
0.0
  0
LINE
  5
1B7
  8
ZUWAKU
 62
     4
 10
1898.708126454763
 20
-1657.89686712009
 30
0.0
 11
1900.415529124482
 21
-1658.93125252082
 31
0.0
  0
LINE
  5
1B8
  8
ZUWAKU
 62
     4
 10
1900.415529124482
 20
-1658.93125252082
 30
0.0
 11
1902.221899855633
 21
-1659.864586350833
 31
0.0
  0
LINE
  5
1B9
  8
ZUWAKU
 62
     4
 10
1902.221899855633
 20
-1659.864586350833
 30
0.0
 11
1904.113491076246
 21
-1660.689765376158
 31
0.0
  0
LINE
  5
1BA
  8
ZUWAKU
 62
     4
 10
1904.113491076246
 20
-1660.689765376158
 30
0.0
 11
1906.075906634944
 21
-1661.400509486147
 31
0.0
  0
LINE
  5
1BB
  8
ZUWAKU
 62
     4
 10
1906.075906634944
 20
-1661.400509486147
 30
0.0
 11
1908.094211364402
 21
-1661.991409488951
 31
0.0
  0
LINE
  5
1BC
  8
ZUWAKU
 62
     4
 10
1908.094211364402
 20
-1661.991409488951
 30
0.0
 11
1910.15304474693
 21
-1662.457968278765
 31
0.0
  0
LINE
  5
1BD
  8
ZUWAKU
 62
     4
 10
1910.15304474693
 20
-1662.457968278765
 30
0.0
 11
1912.236737817332
 21
-1662.796635061496
 31
0.0
  0
LINE
  5
1BE
  8
ZUWAKU
 62
     4
 10
1912.236737817332
 20
-1662.796635061496
 30
0.0
 11
1914.329432413185
 21
-1663.004832378393
 31
0.0
  0
LINE
  5
1BF
  8
ZUWAKU
 62
     4
 10
1914.329432413185
 20
-1663.004832378393
 30
0.0
 11
1916.415201864995
 21
-1663.080975722208
 31
0.0
  0
LINE
  5
1C0
  8
ZUWAKU
 62
     4
 10
1916.415201864995
 20
-1663.080975722208
 30
0.0
 11
1918.478172207816
 21
-1663.024485596084
 31
0.0
  0
LINE
  5
1C1
  8
ZUWAKU
 62
     4
 10
1918.478172207816
 20
-1663.024485596084
 30
0.0
 11
1920.502642991692
 21
-1662.835791924009
 31
0.0
  0
LINE
  5
1C2
  8
ZUWAKU
 62
     4
 10
1920.502642991692
 20
-1662.835791924009
 30
0.0
 11
1922.473206771544
 21
-1662.516330778763
 31
0.0
  0
LINE
  5
1C3
  8
ZUWAKU
 62
     4
 10
1922.473206771544
 20
-1662.516330778763
 30
0.0
 11
1924.374866367144
 21
-1662.06853345254
 31
0.0
  0
LINE
  5
1C4
  8
ZUWAKU
 62
     4
 10
1924.374866367144
 20
-1662.06853345254
 30
0.0
 11
1926.193149000722
 21
-1661.4958079534
 31
0.0
  0
LINE
  5
1C5
  8
ZUWAKU
 62
     4
 10
1926.193149000722
 20
-1661.4958079534
 30
0.0
 11
1927.914216443524
 21
-1660.802513068214
 31
0.0
  0
LINE
  5
1C6
  8
ZUWAKU
 62
     4
 10
1927.914216443524
 20
-1660.802513068214
 30
0.0
 11
1929.524970333102
 21
-1659.993925189655
 31
0.0
  0
LINE
  5
1C7
  8
ZUWAKU
 62
     4
 10
1929.524970333102
 20
-1659.993925189655
 30
0.0
 11
1931.013151859758
 21
-1659.076198159749
 31
0.0
  0
LINE
  5
1C8
  8
ZUWAKU
 62
     4
 10
1931.013151859758
 20
-1659.076198159749
 30
0.0
 11
1932.367435063484
 21
-1658.056316435316
 31
0.0
  0
LINE
  5
1C9
  8
ZUWAKU
 62
     4
 10
1932.367435063484
 20
-1658.056316435316
 30
0.0
 11
1933.577513031361
 21
-1656.942041932088
 31
0.0
  0
LINE
  5
1CA
  8
ZUWAKU
 62
     4
 10
1933.577513031361
 20
-1656.942041932088
 30
0.0
 11
1933.91483335774
 21
-1656.558904313138
 31
0.0
  0
LINE
  5
1CB
  8
ZUWAKU
 62
     4
 10
1934.954492572734
 20
-1655.28494073162
 30
0.0
 11
1935.529383141758
 21
-1654.464889642301
 31
0.0
  0
LINE
  5
1CC
  8
ZUWAKU
 62
     4
 10
1935.529383141758
 20
-1654.464889642301
 30
0.0
 11
1935.992687966724
 21
-1653.608291142978
 31
0.0
  0
LINE
  5
1CD
  8
ZUWAKU
 62
     4
 10
1936.669005430244
 20
-1652.075708838554
 30
0.0
 11
1936.809455605353
 21
-1651.720008309175
 31
0.0
  0
LINE
  5
1CE
  8
ZUWAKU
 62
     4
 10
1936.809455605353
 20
-1651.720008309175
 30
0.0
 11
1937.184579142191
 21
-1650.272982489988
 31
0.0
  0
LINE
  5
1CF
  8
ZUWAKU
 62
     4
 10
1935.651348154013
 20
-1649.974952576525
 30
0.0
 11
1935.833072375002
 21
-1648.588394541658
 31
0.0
  0
LINE
  5
1D0
  8
ZUWAKU
 62
     4
 10
1935.833072375002
 20
-1648.588394541658
 30
0.0
 11
1935.844215767592
 21
-1647.179500330512
 31
0.0
  0
LINE
  5
1D1
  8
ZUWAKU
 62
     4
 10
1935.844215767592
 20
-1647.179500330512
 30
0.0
 11
1935.684693523833
 21
-1645.75899247872
 31
0.0
  0
LINE
  5
1D2
  8
ZUWAKU
 62
     4
 10
1935.684693523833
 20
-1645.75899247872
 30
0.0
 11
1935.355719704332
 21
-1644.337681908809
 31
0.0
  0
LINE
  5
1D3
  8
ZUWAKU
 62
     4
 10
1935.355719704332
 20
-1644.337681908809
 30
0.0
 11
1934.925739329191
 21
-1643.114041792612
 31
0.0
  0
LINE
  5
1D4
  8
ZUWAKU
 62
     4
 10
1934.271517098734
 20
-1641.685246852837
 30
0.0
 11
1934.200702669925
 21
-1641.535844526164
 31
0.0
  0
LINE
  5
1D5
  8
ZUWAKU
 62
     4
 10
1934.200702669925
 20
-1641.535844526164
 30
0.0
 11
1933.383449832078
 21
-1640.176641387713
 31
0.0
  0
LINE
  5
1D6
  8
ZUWAKU
 62
     4
 10
1933.383449832078
 20
-1640.176641387713
 30
0.0
 11
1932.395177551978
 21
-1638.833180840768
 31
0.0
  0
LINE
  5
1D7
  8
ZUWAKU
 62
     4
 10
1930.914457305515
 20
-1637.221273090788
 30
0.0
 11
1930.050669690716
 21
-1636.38884101342
 31
0.0
  0
LINE
  5
1D8
  8
ZUWAKU
 62
     4
 10
1930.050669690716
 20
-1636.38884101342
 30
0.0
 11
1928.674259012389
 21
-1635.254882546485
 31
0.0
  0
LINE
  5
1D9
  8
ZUWAKU
 62
     4
 10
1928.674259012389
 20
-1635.254882546485
 30
0.0
 11
1927.18175039796
 21
-1634.200063980547
 31
0.0
  0
LINE
  5
1DA
  8
ZUWAKU
 62
     4
 10
1927.18175039796
 20
-1634.200063980547
 30
0.0
 11
1925.584502739184
 21
-1633.232413121826
 31
0.0
  0
LINE
  5
1DB
  8
ZUWAKU
 62
     4
 10
1925.584502739184
 20
-1633.232413121826
 30
0.0
 11
1923.894672055205
 21
-1632.359294377599
 31
0.0
  0
LINE
  5
1DC
  8
ZUWAKU
 62
     4
 10
1923.894672055205
 20
-1632.359294377599
 30
0.0
 11
1922.125118977856
 21
-1631.587352708749
 31
0.0
  0
LINE
  5
1DD
  8
ZUWAKU
 62
     4
 10
1922.125118977856
 20
-1631.587352708749
 30
0.0
 11
1920.289310874558
 21
-1630.922463057476
 31
0.0
  0
LINE
  5
1DE
  8
ZUWAKU
 62
     4
 10
1920.289310874558
 20
-1630.922463057476
 30
0.0
 11
1918.401219353455
 21
-1630.369685635485
 31
0.0
  0
LINE
  5
1DF
  8
ZUWAKU
 62
     4
 10
1918.401219353455
 20
-1630.369685635485
 30
0.0
 11
1916.475213931092
 21
-1629.933227412766
 31
0.0
  0
LINE
  5
1E0
  8
ZUWAKU
 62
     4
 10
1916.475213931092
 20
-1629.933227412766
 30
0.0
 11
1914.525952671679
 21
-1629.616410099893
 31
0.0
  0
LINE
  5
1E1
  8
ZUWAKU
 62
     4
 10
1914.525952671679
 20
-1629.616410099893
 30
0.0
 11
1912.568270630406
 21
-1629.421644867957
 31
0.0
  0
LINE
  5
1E2
  8
ZUWAKU
 62
     4
 10
1912.568270630406
 20
-1629.421644867957
 30
0.0
 11
1910.617066949677
 21
-1629.350413997942
 31
0.0
  0
LINE
  5
1E3
  8
ZUWAKU
 62
     4
 10
1910.617066949677
 20
-1629.350413997942
 30
0.0
 11
1908.687191467675
 21
-1629.403259599799
 31
0.0
  0
LINE
  5
1E4
  8
ZUWAKU
 62
     4
 10
1908.687191467675
 20
-1629.403259599799
 30
0.0
 11
1906.793331702117
 21
-1629.579779486582
 31
0.0
  0
LINE
  5
1E5
  8
ZUWAKU
 62
     4
 10
1906.793331702117
 20
-1629.579779486582
 30
0.0
 11
1904.949901069357
 21
-1629.878630235354
 31
0.0
  0
LINE
  5
1E6
  8
ZUWAKU
 62
     4
 10
1904.949901069357
 20
-1629.878630235354
 30
0.0
 11
1903.1709291896
 21
-1630.297537411499
 31
0.0
  0
LINE
  5
1E7
  8
ZUWAKU
 62
     4
 10
1903.1709291896
 20
-1630.297537411499
 30
0.0
 11
1901.469955113032
 21
-1630.833312878435
 31
0.0
  0
LINE
  5
1E8
  8
ZUWAKU
 62
     4
 10
1901.469955113032
 20
-1630.833312878435
 30
0.0
 11
1899.859924279442
 21
-1631.48187906136
 31
0.0
  0
LINE
  5
1E9
  8
ZUWAKU
 62
     4
 10
1899.859924279442
 20
-1631.48187906136
 30
0.0
 11
1898.353089995644
 21
-1632.238299979998
 31
0.0
  0
LINE
  5
1EA
  8
ZUWAKU
 62
     4
 10
1898.353089995644
 20
-1632.238299979998
 30
0.0
 11
1896.960920180384
 21
-1633.09681881443
 31
0.0
  0
LINE
  5
1EB
  8
ZUWAKU
 62
     4
 10
1896.960920180384
 20
-1633.09681881443
 30
0.0
 11
1895.694010086578
 21
-1634.050901717933
 31
0.0
  0
LINE
  5
1EC
  8
ZUWAKU
 62
     4
 10
1895.694010086578
 20
-1634.050901717933
 30
0.0
 11
1894.562001665012
 21
-1635.093287543527
 31
0.0
  0
LINE
  5
1ED
  8
ZUWAKU
 62
     4
 10
1894.562001665012
 20
-1635.093287543527
 30
0.0
 11
1893.773250710962
 21
-1635.989172371258
 31
0.0
  0
LINE
  5
1EE
  8
ZUWAKU
 62
     4
 10
1892.679243913518
 20
-1637.515667628356
 30
0.0
 11
1892.056020602377
 21
-1638.66793741771
 31
0.0
  0
LINE
  5
1EF
  8
ZUWAKU
 62
     4
 10
1892.056020602377
 20
-1638.66793741771
 30
0.0
 11
1892.004648778261
 21
-1638.798040388528
 31
0.0
  0
LINE
  5
1F0
  8
ZUWAKU
 62
     4
 10
1891.46459335943
 20
-1640.263783899157
 30
0.0
 11
1891.187649496816
 21
-1641.332085086137
 31
0.0
  0
LINE
  5
1F1
  8
ZUWAKU
 62
     4
 10
1891.187649496816
 20
-1641.332085086137
 30
0.0
 11
1891.005925275827
 21
-1642.718643121004
 31
0.0
  0
LINE
  5
1F2
  8
ZUWAKU
 62
     4
 10
1891.005925275827
 20
-1642.718643121004
 30
0.0
 11
1890.994781883237
 21
-1644.127537332167
 31
0.0
  0
LINE
  5
1F3
  8
ZUWAKU
 62
     4
 10
1890.994781883237
 20
-1644.127537332167
 30
0.0
 11
1891.154304126996
 21
-1645.548045183942
 31
0.0
  0
LINE
  5
1F4
  8
ZUWAKU
 62
     4
 10
1891.154304126996
 20
-1645.548045183942
 30
0.0
 11
1891.483277946497
 21
-1646.969355753853
 31
0.0
  0
LINE
  5
1F5
  8
ZUWAKU
 62
     4
 10
1891.483277946497
 20
-1646.969355753853
 30
0.0
 11
1891.97919965234
 21
-1648.380652010276
 31
0.0
  0
LINE
  5
1F6
  8
ZUWAKU
 62
     4
 10
1891.97919965234
 20
-1648.380652010276
 30
0.0
 11
1892.638294980896
 21
-1649.771193136515
 31
0.0
  0
LINE
  5
1F7
  8
ZUWAKU
 62
     4
 10
1892.638294980896
 20
-1649.771193136515
 30
0.0
 11
1893.455547818743
 21
-1651.130396274965
 31
0.0
  0
LINE
  5
1F8
  8
ZUWAKU
 62
     4
 10
1893.455547818743
 20
-1651.130396274965
 30
0.0
 11
1894.424738378317
 21
-1652.447917069038
 31
0.0
  0
LINE
  5
1F9
  8
ZUWAKU
 62
     4
 10
1894.424738378317
 20
-1652.447917069038
 30
0.0
 11
1895.53849053424
 21
-1653.713728389955
 31
0.0
  0
LINE
  5
1FA
  8
ZUWAKU
 62
     4
 10
1895.53849053424
 20
-1653.713728389955
 30
0.0
 11
1896.788327960113
 21
-1654.918196649242
 31
0.0
  0
LINE
  5
1FB
  8
ZUWAKU
 62
     4
 10
1896.788327960113
 20
-1654.918196649242
 30
0.0
 11
1898.16473863844
 21
-1656.052155116177
 31
0.0
  0
LINE
  5
1FC
  8
ZUWAKU
 62
     4
 10
1898.16473863844
 20
-1656.052155116177
 30
0.0
 11
1899.657247252869
 21
-1657.106973682115
 31
0.0
  0
LINE
  5
1FD
  8
ZUWAKU
 62
     4
 10
1899.657247252869
 20
-1657.106973682115
 30
0.0
 11
1901.254494911636
 21
-1658.074624540853
 31
0.0
  0
LINE
  5
1FE
  8
ZUWAKU
 62
     4
 10
1901.254494911636
 20
-1658.074624540853
 30
0.0
 11
1902.944325595624
 21
-1658.947743285063
 31
0.0
  0
LINE
  5
1FF
  8
ZUWAKU
 62
     4
 10
1902.944325595624
 20
-1658.947743285063
 30
0.0
 11
1904.713878672965
 21
-1659.719684953913
 31
0.0
  0
LINE
  5
200
  8
ZUWAKU
 62
     4
 10
1904.713878672965
 20
-1659.719684953913
 30
0.0
 11
1906.549686776271
 21
-1660.384574605186
 31
0.0
  0
LINE
  5
201
  8
ZUWAKU
 62
     4
 10
1906.549686776271
 20
-1660.384574605186
 30
0.0
 11
1908.437778297366
 21
-1660.937352027177
 31
0.0
  0
LINE
  5
202
  8
ZUWAKU
 62
     4
 10
1908.437778297366
 20
-1660.937352027177
 30
0.0
 11
1910.363783719737
 21
-1661.373810249897
 31
0.0
  0
LINE
  5
203
  8
ZUWAKU
 62
     4
 10
1910.363783719737
 20
-1661.373810249897
 30
0.0
 11
1912.31304497915
 21
-1661.690627562769
 31
0.0
  0
LINE
  5
204
  8
ZUWAKU
 62
     4
 10
1912.31304497915
 20
-1661.690627562769
 30
0.0
 11
1914.270727020423
 21
-1661.885392794721
 31
0.0
  0
LINE
  5
205
  8
ZUWAKU
 62
     4
 10
1914.270727020423
 20
-1661.885392794721
 30
0.0
 11
1916.221930701152
 21
-1661.95662366472
 31
0.0
  0
LINE
  5
206
  8
ZUWAKU
 62
     4
 10
1916.221930701152
 20
-1661.95662366472
 30
0.0
 11
1918.151806183146
 21
-1661.90377806288
 31
0.0
  0
LINE
  5
207
  8
ZUWAKU
 62
     4
 10
1918.151806183146
 20
-1661.90377806288
 30
0.0
 11
1920.045665948704
 21
-1661.727258176096
 31
0.0
  0
LINE
  5
208
  8
ZUWAKU
 62
     4
 10
1920.045665948704
 20
-1661.727258176096
 30
0.0
 11
1921.889096581472
 21
-1661.428407427308
 31
0.0
  0
LINE
  5
209
  8
ZUWAKU
 62
     4
 10
1921.889096581472
 20
-1661.428407427308
 30
0.0
 11
1923.668068461228
 21
-1661.00950025118
 31
0.0
  0
LINE
  5
20A
  8
ZUWAKU
 62
     4
 10
1923.668068461228
 20
-1661.00950025118
 30
0.0
 11
1925.369042537797
 21
-1660.473724784227
 31
0.0
  0
LINE
  5
20B
  8
ZUWAKU
 62
     4
 10
1925.369042537797
 20
-1660.473724784227
 30
0.0
 11
1926.979073371387
 21
-1659.825158601318
 31
0.0
  0
LINE
  5
20C
  8
ZUWAKU
 62
     4
 10
1926.979073371387
 20
-1659.825158601318
 30
0.0
 11
1928.485907655185
 21
-1659.068737682664
 31
0.0
  0
LINE
  5
20D
  8
ZUWAKU
 62
     4
 10
1928.485907655185
 20
-1659.068737682664
 30
0.0
 11
1929.878077470445
 21
-1658.210218848232
 31
0.0
  0
LINE
  5
20E
  8
ZUWAKU
 62
     4
 10
1929.878077470445
 20
-1658.210218848232
 30
0.0
 11
1931.144987564251
 21
-1657.256135944729
 31
0.0
  0
LINE
  5
20F
  8
ZUWAKU
 62
     4
 10
1931.144987564251
 20
-1657.256135944729
 30
0.0
 11
1932.276995985817
 21
-1656.213750119135
 31
0.0
  0
LINE
  5
210
  8
ZUWAKU
 62
     4
 10
1932.276995985817
 20
-1656.213750119135
 30
0.0
 11
1932.46358168974
 21
-1656.001820992006
 31
0.0
  0
LINE
  5
211
  8
ZUWAKU
 62
     4
 10
1933.51649520091
 20
-1654.732945258095
 30
0.0
 11
1934.102938992322
 21
-1653.896414106096
 31
0.0
  0
LINE
  5
212
  8
ZUWAKU
 62
     4
 10
1934.102938992322
 20
-1653.896414106096
 30
0.0
 11
1934.782977048451
 21
-1652.639100244952
 31
0.0
  0
LINE
  5
213
  8
ZUWAKU
 62
     4
 10
1934.782977048451
 20
-1652.639100244952
 30
0.0
 11
1934.851063375157
 21
-1652.466666551402
 31
0.0
  0
LINE
  5
214
  8
ZUWAKU
 62
     4
 10
1935.42837196331
 20
-1650.83507537162
 30
0.0
 11
1935.651348154013
 21
-1649.974952576525
 31
0.0
  0
LINE
  5
215
  8
ZUWAKU
 62
     4
 10
1888.909343724979
 20
-1644.867132643119
 30
0.0
 11
1888.715086799098
 21
-1646.349315370056
 31
0.0
  0
LINE
  5
216
  8
ZUWAKU
 62
     4
 10
1888.715086799098
 20
-1646.349315370056
 30
0.0
 11
1888.703174896671
 21
-1647.855374699225
 31
0.0
  0
LINE
  5
217
  8
ZUWAKU
 62
     4
 10
1888.703174896671
 20
-1647.855374699225
 30
0.0
 11
1888.873698674482
 21
-1649.373848609736
 31
0.0
  0
LINE
  5
218
  8
ZUWAKU
 62
     4
 10
1888.873698674482
 20
-1649.373848609736
 30
0.0
 11
1889.225360343602
 21
-1650.893180598268
 31
0.0
  0
LINE
  5
219
  8
ZUWAKU
 62
     4
 10
1889.225360343602
 20
-1650.893180598268
 30
0.0
 11
1889.755483546404
 21
-1652.401807630994
 31
0.0
  0
LINE
  5
21A
  8
ZUWAKU
 62
     4
 10
1889.755483546404
 20
-1652.401807630994
 30
0.0
 11
1890.460033725207
 21
-1653.888248145241
 31
0.0
  0
LINE
  5
21B
  8
ZUWAKU
 62
     4
 10
1890.460033725207
 20
-1653.888248145241
 30
0.0
 11
1891.333648827731
 21
-1655.341189431184
 31
0.0
  0
LINE
  5
21C
  8
ZUWAKU
 62
     4
 10
1891.333648827731
 20
-1655.341189431184
 30
0.0
 11
1892.369680115551
 21
-1656.749573728302
 31
0.0
  0
LINE
  5
21D
  8
ZUWAKU
 62
     4
 10
1892.369680115551
 20
-1656.749573728302
 30
0.0
 11
1893.560242764989
 21
-1658.102682381682
 31
0.0
  0
LINE
  5
21E
  8
ZUWAKU
 62
     4
 10
1893.560242764989
 20
-1658.102682381682
 30
0.0
 11
1894.896275875402
 21
-1659.390217417486
 31
0.0
  0
LINE
  5
21F
  8
ZUWAKU
 62
     4
 10
1894.896275875402
 20
-1659.390217417486
 30
0.0
 11
1896.367611428099
 21
-1660.60237991661
 31
0.0
  0
LINE
  5
220
  8
ZUWAKU
 62
     4
 10
1896.367611428099
 20
-1660.60237991661
 30
0.0
 11
1897.963051671105
 21
-1661.729944590551
 31
0.0
  0
LINE
  5
221
  8
ZUWAKU
 62
     4
 10
1897.963051671105
 20
-1661.729944590551
 30
0.0
 11
1899.670454340823
 21
-1662.764329991264
 31
0.0
  0
LINE
  5
222
  8
ZUWAKU
 62
     4
 10
1899.670454340823
 20
-1662.764329991264
 30
0.0
 11
1901.476825071983
 21
-1663.697663821294
 31
0.0
  0
LINE
  5
223
  8
ZUWAKU
 62
     4
 10
1901.476825071983
 20
-1663.697663821294
 30
0.0
 11
1903.368416292587
 21
-1664.522842846619
 31
0.0
  0
LINE
  5
224
  8
ZUWAKU
 62
     4
 10
1903.368416292587
 20
-1664.522842846619
 30
0.0
 11
1905.330831851294
 21
-1665.233586956591
 31
0.0
  0
LINE
  5
225
  8
ZUWAKU
 62
     4
 10
1905.330831851294
 20
-1665.233586956591
 30
0.0
 11
1907.349136580744
 21
-1665.824486959412
 31
0.0
  0
LINE
  5
226
  8
ZUWAKU
 62
     4
 10
1907.349136580744
 20
-1665.824486959412
 30
0.0
 11
1909.407969963272
 21
-1666.291045749226
 31
0.0
  0
LINE
  5
227
  8
ZUWAKU
 62
     4
 10
1909.407969963272
 20
-1666.291045749226
 30
0.0
 11
1911.491663033682
 21
-1666.629712531941
 31
0.0
  0
LINE
  5
228
  8
ZUWAKU
 62
     4
 10
1911.491663033682
 20
-1666.629712531941
 30
0.0
 11
1913.584357629527
 21
-1666.837909848838
 31
0.0
  0
LINE
  5
229
  8
ZUWAKU
 62
     4
 10
1913.584357629527
 20
-1666.837909848838
 30
0.0
 11
1915.670127081336
 21
-1666.914053192652
 31
0.0
  0
LINE
  5
22A
  8
ZUWAKU
 62
     4
 10
1915.670127081336
 20
-1666.914053192652
 30
0.0
 11
1917.733097424166
 21
-1666.857563066528
 31
0.0
  0
LINE
  5
22B
  8
ZUWAKU
 62
     4
 10
1917.733097424166
 20
-1666.857563066528
 30
0.0
 11
1919.757568208041
 21
-1666.668869394453
 31
0.0
  0
LINE
  5
22C
  8
ZUWAKU
 62
     4
 10
1919.757568208041
 20
-1666.668869394453
 30
0.0
 11
1921.728131987886
 21
-1666.349408249208
 31
0.0
  0
LINE
  5
22D
  8
ZUWAKU
 62
     4
 10
1921.728131987886
 20
-1666.349408249208
 30
0.0
 11
1923.629791583486
 21
-1665.901610922984
 31
0.0
  0
LINE
  5
22E
  8
ZUWAKU
 62
     4
 10
1923.629791583486
 20
-1665.901610922984
 30
0.0
 11
1925.448074217064
 21
-1665.328885423844
 31
0.0
  0
LINE
  5
22F
  8
ZUWAKU
 62
     4
 10
1925.448074217064
 20
-1665.328885423844
 30
0.0
 11
1927.169141659866
 21
-1664.635590538658
 31
0.0
  0
LINE
  5
230
  8
ZUWAKU
 62
     4
 10
1927.169141659866
 20
-1664.635590538658
 30
0.0
 11
1928.779895549444
 21
-1663.827002660099
 31
0.0
  0
LINE
  5
231
  8
ZUWAKU
 62
     4
 10
1928.779895549444
 20
-1663.827002660099
 30
0.0
 11
1930.2680770761
 21
-1662.909275630193
 31
0.0
  0
LINE
  5
232
  8
ZUWAKU
 62
     4
 10
1930.2680770761
 20
-1662.909275630193
 30
0.0
 11
1931.622360279825
 21
-1661.889393905761
 31
0.0
  0
LINE
  5
233
  8
ZUWAKU
 62
     4
 10
1931.622360279825
 20
-1661.889393905761
 30
0.0
 11
1932.820161216036
 21
-1660.78642444547
 31
0.0
  0
LINE
  5
234
  8
ZUWAKU
 62
     4
 10
1929.995759042281
 20
-1645.402462450583
 30
0.0
 11
1935.42837196331
 21
-1650.83507537162
 31
0.0
  0
LINE
  5
235
  8
ZUWAKU
 62
     4
 10
1936.669005430244
 20
-1652.075708838554
 30
0.0
 11
1944.622008324086
 21
-1660.028711732389
 31
0.0
  0
LINE
  5
236
  8
ZUWAKU
 62
     4
 10
1928.891309158301
 20
-1646.506912334563
 30
0.0
 11
1934.851063375157
 21
-1652.466666551402
 31
0.0
  0
LINE
  5
237
  8
ZUWAKU
 62
     4
 10
1935.992687966724
 20
-1653.608291142978
 30
0.0
 11
1938.321530261545
 21
-1655.937133437791
 31
0.0
  0
LINE
  5
238
  8
ZUWAKU
 62
     4
 10
1937.945490882401
 20
-1652.247744406731
 30
0.0
 11
1946.879542538427
 21
-1661.18179606275
 31
0.0
  0
LINE
  5
239
  8
ZUWAKU
 62
     4
 10
1877.85268684855
 20
-1635.337449172105
 30
0.0
 11
1877.275202073406
 21
-1638.308350791263
 31
0.0
  0
LINE
  5
23A
  8
ZUWAKU
 62
     4
 10
1891.787686423404
 20
-1634.857136181462
 30
0.0
 11
1892.702366664887
 21
-1633.81821743739
 31
0.0
  0
LINE
  5
23B
  8
ZUWAKU
 62
     4
 10
1892.702366664887
 20
-1633.81821743739
 30
0.0
 11
1893.970932831933
 21
-1632.65008532268
 31
0.0
  0
LINE
  5
23C
  8
ZUWAKU
 62
     4
 10
1893.970932831933
 20
-1632.65008532268
 30
0.0
 11
1895.385030475773
 21
-1631.585158622304
 31
0.0
  0
LINE
  5
23D
  8
ZUWAKU
 62
     4
 10
1895.385030475773
 20
-1631.585158622304
 30
0.0
 11
1896.933154047229
 21
-1630.630466723686
 31
0.0
  0
LINE
  5
23E
  8
ZUWAKU
 62
     4
 10
1896.933154047229
 20
-1630.630466723686
 30
0.0
 11
1898.603147636507
 21
-1629.792140904768
 31
0.0
  0
LINE
  5
23F
  8
ZUWAKU
 62
     4
 10
1898.603147636507
 20
-1629.792140904768
 30
0.0
 11
1900.382233139526
 21
-1629.075474695826
 31
0.0
  0
LINE
  5
240
  8
ZUWAKU
 62
     4
 10
1900.382233139526
 20
-1629.075474695826
 30
0.0
 11
1902.257034440288
 21
-1628.484946858772
 31
0.0
  0
LINE
  5
241
  8
ZUWAKU
 62
     4
 10
1902.257034440288
 20
-1628.484946858772
 30
0.0
 11
1904.213612173954
 21
-1628.024217567526
 31
0.0
  0
LINE
  5
242
  8
ZUWAKU
 62
     4
 10
1904.213612173954
 20
-1628.024217567526
 30
0.0
 11
1906.23751501744
 21
-1627.696109273406
 31
0.0
  0
LINE
  5
243
  8
ZUWAKU
 62
     4
 10
1906.23751501744
 20
-1627.696109273406
 30
0.0
 11
1908.313848093552
 21
-1627.502581702799
 31
0.0
  0
LINE
  5
244
  8
ZUWAKU
 62
     4
 10
1908.313848093552
 20
-1627.502581702799
 30
0.0
 11
1910.427356381729
 21
-1627.444707700789
 31
0.0
  0
LINE
  5
245
  8
ZUWAKU
 62
     4
 10
1910.427356381729
 20
-1627.444707700789
 30
0.0
 11
1912.562520016613
 21
-1627.522654234429
 31
0.0
  0
LINE
  5
246
  8
ZUWAKU
 62
     4
 10
1912.562520016613
 20
-1627.522654234429
 30
0.0
 11
1914.703658222614
 21
-1627.73567109341
 31
0.0
  0
LINE
  5
247
  8
ZUWAKU
 62
     4
 10
1914.703658222614
 20
-1627.73567109341
 30
0.0
 11
1916.835038859696
 21
-1628.08208863127
 31
0.0
  0
LINE
  5
248
  8
ZUWAKU
 62
     4
 10
1916.835038859696
 20
-1628.08208863127
 30
0.0
 11
1918.940990868082
 21
-1628.55932512295
 31
0.0
  0
LINE
  5
249
  8
ZUWAKU
 62
     4
 10
1918.940990868082
 20
-1628.55932512295
 30
0.0
 11
1921.006017162961
 21
-1629.163903819944
 31
0.0
  0
LINE
  5
24A
  8
ZUWAKU
 62
     4
 10
1921.006017162961
 20
-1629.163903819944
 30
0.0
 11
1923.014905697529
 21
-1629.891479428084
 31
0.0
  0
LINE
  5
24B
  8
ZUWAKU
 62
     4
 10
1923.014905697529
 20
-1629.891479428084
 30
0.0
 11
1924.952836476075
 21
-1630.736873408324
 31
0.0
  0
LINE
  5
24C
  8
ZUWAKU
 62
     4
 10
1924.952836476075
 20
-1630.736873408324
 30
0.0
 11
1926.805482276997
 21
-1631.694117107655
 31
0.0
  0
LINE
  5
24D
  8
ZUWAKU
 62
     4
 10
1926.805482276997
 20
-1631.694117107655
 30
0.0
 11
1928.559100786358
 21
-1632.756501170113
 31
0.0
  0
LINE
  5
24E
  8
ZUWAKU
 62
     4
 10
1928.559100786358
 20
-1632.756501170113
 30
0.0
 11
1930.20061584094
 21
-1633.916628849839
 31
0.0
  0
LINE
  5
24F
  8
ZUWAKU
 62
     4
 10
1930.20061584094
 20
-1633.916628849839
 30
0.0
 11
1931.717685716163
 21
-1635.166469654642
 31
0.0
  0
LINE
  5
250
  8
ZUWAKU
 62
     4
 10
1931.717685716163
 20
-1635.166469654642
 30
0.0
 11
1932.898712324155
 21
-1636.30462493249
 31
0.0
  0
LINE
  5
251
  8
ZUWAKU
 62
     4
 10
1888.909343724979
 20
-1644.867132643119
 30
0.0
 11
1889.037829712144
 21
-1644.206129541833
 31
0.0
  0
LINE
  5
252
  8
ZUWAKU
 62
     4
 10
1938.005355606911
 20
-1645.75966281532
 30
0.0
 11
1938.172057788247
 21
-1647.244106313158
 31
0.0
  0
LINE
  5
253
  8
ZUWAKU
 62
     4
 10
1938.172057788247
 20
-1647.244106313158
 30
0.0
 11
1938.159397128175
 21
-1648.844833430286
 31
0.0
  0
LINE
  5
254
  8
ZUWAKU
 62
     4
 10
1938.159397128175
 20
-1648.844833430286
 30
0.0
 11
1937.958920992024
 21
-1650.37446880784
 31
0.0
  0
LINE
  5
255
  8
ZUWAKU
 62
     4
 10
1937.958920992024
 20
-1650.37446880784
 30
0.0
 11
1937.731100330302
 21
-1651.546504508017
 31
0.0
  0
ARC
  5
256
  8
ZUWAKU
 62
     4
 10
1938.497715824391
 20
-1651.695519464741
 30
0.0
 40
0.7809640024405123
 50
168.9999999999997
 51
224.9999999999998
  0
LINE
  5
257
  8
ZUWAKU
 62
     4
 10
1946.562914580041
 20
-1664.614889372132
 30
0.0
 11
1947.093933090526
 21
-1661.883035961463
 31
0.0
  0
ARC
  5
258
  8
ZUWAKU
 62
     4
 10
1946.327317596437
 20
-1661.73402100474
 30
0.0
 40
0.7809640024405123
 50
349.0000000000001
 51
405.0000000000001
  0
ARC
  5
259
  8
ZUWAKU
 62
     4
 10
1929.995759042281
 20
-1645.402462450583
 30
0.0
 40
1.561928004881025
 50
114.9999999999996
 51
225.0
  0
ARC
  5
25A
  8
ZUWAKU
 62
     4
 10
1929.995759042281
 20
-1645.402462450583
 30
0.0
 40
2.342892007321516
 50
138.0853946908566
 51
168.9999999999998
  0
ARC
  5
25B
  8
ZUWAKU
 62
     4
 10
1927.671168819007
 20
-1643.315657077862
 30
0.0
 40
0.7809640024405123
 50
318.0853946908566
 51
448.1000000000001
  0
LINE
  5
25C
  8
ZUWAKU
 62
     4
 10
1892.055407287505
 20
-1645.977897702064
 30
0.0
 11
1892.234390895368
 21
-1646.751185053873
 31
0.0
  0
LINE
  5
25D
  8
ZUWAKU
 62
     4
 10
1892.234390895368
 20
-1646.751185053873
 30
0.0
 11
1892.702431546392
 21
-1648.083137277084
 31
0.0
  0
LINE
  5
25E
  8
ZUWAKU
 62
     4
 10
1892.702431546392
 20
-1648.083137277084
 30
0.0
 11
1893.327472977369
 21
-1649.401832430453
 31
0.0
  0
LINE
  5
25F
  8
ZUWAKU
 62
     4
 10
1893.327472977369
 20
-1649.401832430453
 30
0.0
 11
1894.106140977053
 21
-1650.696863710823
 31
0.0
  0
LINE
  5
260
  8
ZUWAKU
 62
     4
 10
1894.106140977053
 20
-1650.696863710823
 30
0.0
 11
1895.033601524022
 21
-1651.957656590253
 31
0.0
  0
LINE
  5
261
  8
ZUWAKU
 62
     4
 10
1895.033601524022
 20
-1651.957656590253
 30
0.0
 11
1896.103567615379
 21
-1653.173703790907
 31
0.0
  0
LINE
  5
262
  8
ZUWAKU
 62
     4
 10
1896.103567615379
 20
-1653.173703790907
 30
0.0
 11
1897.308366684508
 21
-1654.334768588265
 31
0.0
  0
LINE
  5
263
  8
ZUWAKU
 62
     4
 10
1897.308366684508
 20
-1654.334768588265
 30
0.0
 11
1898.639043040308
 21
-1655.43104874952
 31
0.0
  0
LINE
  5
264
  8
ZUWAKU
 62
     4
 10
1898.639043040308
 20
-1655.43104874952
 30
0.0
 11
1900.085476843161
 21
-1656.453304309655
 31
0.0
  0
LINE
  5
265
  8
ZUWAKU
 62
     4
 10
1900.085476843161
 20
-1656.453304309655
 30
0.0
 11
1901.636508662286
 21
-1657.392956506649
 31
0.0
  0
LINE
  5
266
  8
ZUWAKU
 62
     4
 10
1901.636508662286
 20
-1657.392956506649
 30
0.0
 11
1903.280064276519
 21
-1658.242165381574
 31
0.0
  0
LINE
  5
267
  8
ZUWAKU
 62
     4
 10
1903.280064276519
 20
-1658.242165381574
 30
0.0
 11
1905.003277795919
 21
-1658.993892095493
 31
0.0
  0
LINE
  5
268
  8
ZUWAKU
 62
     4
 10
1905.003277795919
 20
-1658.993892095493
 30
0.0
 11
1906.792612923356
 21
-1659.641950248614
 31
0.0
  0
LINE
  5
269
  8
ZUWAKU
 62
     4
 10
1906.792612923356
 20
-1659.641950248614
 30
0.0
 11
1908.63398287903
 21
-1660.181048976417
 31
0.0
  0
LINE
  5
26A
  8
ZUWAKU
 62
     4
 10
1908.63398287903
 20
-1660.181048976417
 30
0.0
 11
1910.512869675535
 21
-1660.606829497286
 31
0.0
  0
LINE
  5
26B
  8
ZUWAKU
 62
     4
 10
1910.512869675535
 20
-1660.606829497286
 30
0.0
 11
1912.414443368275
 21
-1660.915896054997
 31
0.0
  0
LINE
  5
26C
  8
ZUWAKU
 62
     4
 10
1912.414443368275
 20
-1660.915896054997
 30
0.0
 11
1914.3236817994
 21
-1661.105841744881
 31
0.0
  0
LINE
  5
26D
  8
ZUWAKU
 62
     4
 10
1914.3236817994
 20
-1661.105841744881
 30
0.0
 11
1916.225491297047
 21
-1661.175269425055
 31
0.0
  0
LINE
  5
26E
  8
ZUWAKU
 62
     4
 10
1916.225491297047
 20
-1661.175269425055
 30
0.0
 11
1918.104828833702
 21
-1661.123807699084
 31
0.0
  0
LINE
  5
26F
  8
ZUWAKU
 62
     4
 10
1918.104828833702
 20
-1661.123807699084
 30
0.0
 11
1919.946826307007
 21
-1660.95212171085
 31
0.0
  0
LINE
  5
270
  8
ZUWAKU
 62
     4
 10
1919.946826307007
 20
-1660.95212171085
 30
0.0
 11
1921.736917876141
 21
-1660.661918110919
 31
0.0
  0
LINE
  5
271
  8
ZUWAKU
 62
     4
 10
1921.736917876141
 20
-1660.661918110919
 30
0.0
 11
1923.460971617823
 21
-1660.255942899813
 31
0.0
  0
LINE
  5
272
  8
ZUWAKU
 62
     4
 10
1923.460971617823
 20
-1660.255942899813
 30
0.0
 11
1925.105427027216
 21
-1659.73796977079
 31
0.0
  0
LINE
  5
273
  8
ZUWAKU
 62
     4
 10
1926.286501136116
 20
-1659.262199549153
 30
0.0
 11
1925.105427027216
 21
-1659.73796977079
 31
0.0
  0
LINE
  5
274
  8
ZUWAKU
 62
     4
 10
1927.773753948065
 20
-1649.967509378422
 30
0.0
 11
1929.533408412754
 21
-1651.727163843111
 31
0.0
  0
LINE
  5
275
  8
ZUWAKU
 62
     4
 10
1927.695912560006
 20
-1644.95541758038
 30
0.0
 11
1927.13058229176
 21
-1647.863789682265
 31
0.0
  0
ARC
  5
276
  8
ZUWAKU
 62
     4
 10
1929.430428774027
 20
-1648.310834552452
 30
0.0
 40
2.342892007321537
 50
168.9999999999998
 51
224.9999999999996
  0
LINE
  5
277
  8
ZUWAKU
 62
     4
 10
1880.912849172643
 20
-1635.562548913328
 30
0.0
 11
1891.949988327033
 21
-1635.928688528619
 31
0.0
  0
LINE
  5
278
  8
ZUWAKU
 62
     4
 10
1893.773250710962
 20
-1635.989172371258
 30
0.0
 11
1930.914457305515
 21
-1637.221273090788
 31
0.0
  0
LINE
  5
279
  8
ZUWAKU
 62
     4
 10
1932.748982905686
 20
-1637.282130572804
 30
0.0
 11
1945.195797020512
 21
-1637.695033922822
 31
0.0
  0
LINE
  5
27A
  8
ZUWAKU
 62
     4
 10
1945.316965345779
 20
-1638.290595268701
 30
0.0
 11
1936.229649927674
 21
-1642.508786644306
 31
0.0
  0
LINE
  5
27B
  8
ZUWAKU
 62
     4
 10
1934.925739329191
 20
-1643.114041792612
 30
0.0
 11
1929.995759042281
 21
-1645.402462450583
 31
0.0
  0
ARC
  5
27C
  8
ZUWAKU
 62
     4
 10
1945.185439820186
 20
-1638.007247779172
 30
0.0
 40
0.3123856009762049
 50
294.9000000000007
 51
448.0999999999997
  0
LINE
  5
27D
  8
ZUWAKU
 62
     4
 10
1944.289169359999
 20
-1660.541238791776
 30
0.0
 11
1933.91483335774
 21
-1656.558904313138
 31
0.0
  0
LINE
  5
27E
  8
ZUWAKU
 62
     4
 10
1932.463581689748
 20
-1656.001820992006
 30
0.0
 11
1891.46459335943
 21
-1640.263783899157
 31
0.0
  0
LINE
  5
27F
  8
ZUWAKU
 62
     4
 10
1889.9998603197
 20
-1639.701525564274
 30
0.0
 11
1880.79054298503
 21
-1636.166399852266
 31
0.0
  0
ARC
  5
280
  8
ZUWAKU
 62
     4
 10
1880.902491972318
 20
-1635.874762769679
 30
0.0
 40
0.3123856009762049
 50
90.00000000000003
 51
249.0000000000023
  0
ARC
  5
281
  8
ZUWAKU
 62
     4
 10
1944.401118347287
 20
-1660.249601709188
 30
0.0
 40
0.3123856009762049
 50
249.0000000000006
 51
405.0
  0
LINE
  5
282
  8
ZUWAKU
 62
     4
 10
1933.414743504965
 20
-1636.52282252633
 30
0.0
 11
1947.322710439192
 21
-1636.984197307563
 31
0.0
  0
ARC
  5
283
  8
ZUWAKU
 62
     4
 10
1933.440636505782
 20
-1635.742287885446
 30
0.0
 40
0.7809640024405123
 50
226.0590228224399
 51
268.1000000000001
  0
LINE
  5
284
  8
ZUWAKU
 62
     4
 10
1878.645195343456
 20
-1634.705929487945
 30
0.0
 11
1891.175634013416
 21
-1635.121606950174
 31
0.0
  0
ARC
  5
285
  8
ZUWAKU
 62
     4
 10
1878.619302342639
 20
-1635.486464128829
 30
0.0
 40
0.7809640024405123
 50
88.10000000000028
 51
168.9999999999999
  0
ARC
  5
286
  8
ZUWAKU
 62
     4
 10
1891.201527014234
 20
-1634.341072309307
 30
0.0
 40
0.7809640024405123
 50
268.1000000000004
 51
318.638806595188
  0
LINE
  5
287
  8
ZUWAKU
 62
     4
 10
1948.063432932472
 20
-1637.91374690517
 30
0.0
 11
1947.586318284343
 21
-1640.368288984238
 31
0.0
  0
ARC
  5
288
  8
ZUWAKU
 62
     4
 10
1947.296817438375
 20
-1637.764731948447
 30
0.0
 40
0.7809640024405123
 50
349.0000000000001
 51
448.1
  0
LINE
  5
289
  8
ZUWAKU
 62
     4
 10
1947.148516604233
 20
-1640.927642751295
 30
0.0
 11
1938.452627455237
 21
-1644.964140102159
 31
0.0
  0
ARC
  5
28A
  8
ZUWAKU
 62
     4
 10
1946.819702790254
 20
-1640.219274027514
 30
0.0
 40
0.7809640024405123
 50
294.9000000000004
 51
349.0000000000001
  0
ARC
  5
28B
  8
ZUWAKU
 62
     4
 10
1938.781441269216
 20
-1645.672508825956
 30
0.0
 40
0.7809640024405123
 50
114.9
 51
186.40743915255
  0
LINE
  5
28C
  8
ZUWAKU
 62
     4
 10
1937.988691297458
 20
-1656.449660497178
 30
0.0
 11
1934.954492572734
 21
-1655.28494073162
 31
0.0
  0
ARC
  5
28D
  8
ZUWAKU
 62
     4
 10
1938.100640284746
 20
-1656.15802341459
 30
0.0
 40
0.3123856009762049
 50
248.999999999998
 51
405.000000000001
  0
LINE
  5
28E
  8
ZUWAKU
 62
     4
 10
1933.51649520091
 20
-1654.732945258095
 30
0.0
 11
1892.004648778261
 21
-1638.798040388528
 31
0.0
  0
LINE
  5
28F
  8
ZUWAKU
 62
     4
 10
1890.560038881361
 20
-1638.243506604455
 30
0.0
 11
1888.284128989453
 21
-1637.369866649965
 31
0.0
  0
LINE
  5
290
  8
ZUWAKU
 62
     4
 10
1929.200569448675
 20
-1652.239690902498
 30
0.0
 11
1906.003708967151
 21
-1643.33525043791
 31
0.0
  0
ARC
  5
291
  8
ZUWAKU
 62
     4
 10
1929.312518435963
 20
-1651.948053819911
 30
0.0
 40
0.3123856009762049
 50
249.0000000000001
 51
404.9999999999984
  0
LINE
  5
292
  8
ZUWAKU
 62
     4
 10
1877.761945099271
 20
-1639.186458454472
 30
0.0
 11
1888.55108668628
 21
-1643.328021878623
 31
0.0
  0
ARC
  5
293
  8
ZUWAKU
 62
     4
 10
1888.271214218055
 20
-1644.057114585109
 30
0.0
 40
0.7809640024405123
 50
349.0000000000001
 51
429.0000000000001
  0
LINE
  5
294
  8
ZUWAKU
 62
     4
 10
1893.096129207487
 20
-1645.07270024023
 30
0.0
 11
1926.274565418272
 21
-1657.808708640258
 31
0.0
  0
ARC
  5
295
  8
ZUWAKU
 62
     4
 10
1925.994692950048
 20
-1658.537801346744
 30
0.0
 40
0.7809640024405123
 50
291.9409771775847
 51
429.0000000000001
  0
LINE
  5
296
  8
ZUWAKU
 62
     4
 10
1933.629048250358
 20
-1660.631830095789
 30
0.0
 11
1945.516426617728
 21
-1665.194967121878
 31
0.0
  0
ARC
  5
297
  8
ZUWAKU
 62
     4
 10
1945.796299085952
 20
-1664.465874415392
 30
0.0
 40
0.7809640024405123
 50
249.0000000000001
 51
349.0000000000001
  0
ARC
  5
298
  8
ZUWAKU
 62
     4
 10
1933.349175782134
 20
-1661.360922802259
 30
0.0
 40
0.7809640024405123
 50
69.00000000000006
 51
132.6397603242119
  0
ARC
  5
299
  8
ZUWAKU
 62
     4
 10
1892.816256739263
 20
-1645.8017929467
 30
0.0
 40
0.7809640024405123
 50
69.00000000000006
 51
193.0320838540856
  0
ARC
  5
29A
  8
ZUWAKU
 62
     4
 10
1878.041817567495
 20
-1638.457365747986
 30
0.0
 40
0.7809640024405123
 50
168.9999999999999
 51
249.0000000000001
  0
LINE
  5
29B
  8
ZUWAKU
 62
     4
 10
1892.679243913518
 20
-1637.515667628356
 30
0.0
 11
1932.395177551978
 21
-1638.833180840768
 31
0.0
  0
LINE
  5
29C
  8
ZUWAKU
 62
     4
 10
1888.284128989453
 20
-1637.369866649965
 30
0.0
 11
1890.975892940435
 21
-1637.459161656915
 31
0.0
  0
LINE
  5
29D
  8
ZUWAKU
 62
     4
 10
1934.268111701234
 20
-1641.697304345033
 30
0.0
 11
1929.338131414324
 21
-1643.985725003005
 31
0.0
  0
LINE
  5
29E
  8
ZUWAKU
 62
     4
 10
1906.309474436184
 20
-1641.825623090556
 30
0.0
 11
1927.697061819825
 21
-1642.535122436978
 31
0.0
  0
ARC
  5
29F
  8
ZUWAKU
 62
     4
 10
1906.283581435375
 20
-1642.606157731424
 30
0.0
 40
0.7809640024405123
 50
88.10000000000008
 51
249.0000000000001
  0
LINE
  5
2A0
  8
ZUWAKU
 62
     4
 10
1918.654296378599
 20
-1634.494992469528
 30
0.0
 11
1917.656144569804
 21
-1634.202763105946
 31
0.0
  0
LINE
  5
2A1
  8
ZUWAKU
 62
     4
 10
1917.656144569804
 20
-1634.202763105946
 30
0.0
 11
1915.730139147434
 21
-1633.76630488321
 31
0.0
  0
LINE
  5
2A2
  8
ZUWAKU
 62
     4
 10
1915.730139147434
 20
-1633.76630488321
 30
0.0
 11
1913.780877888021
 21
-1633.449487570354
 31
0.0
  0
LINE
  5
2A3
  8
ZUWAKU
 62
     4
 10
1913.780877888021
 20
-1633.449487570354
 30
0.0
 11
1911.823195846748
 21
-1633.254722338402
 31
0.0
  0
LINE
  5
2A4
  8
ZUWAKU
 62
     4
 10
1911.823195846748
 20
-1633.254722338402
 30
0.0
 11
1909.871992166019
 21
-1633.183491468387
 31
0.0
  0
LINE
  5
2A5
  8
ZUWAKU
 62
     4
 10
1909.871992166019
 20
-1633.183491468387
 30
0.0
 11
1907.942116684025
 21
-1633.236337070243
 31
0.0
  0
LINE
  5
2A6
  8
ZUWAKU
 62
     4
 10
1907.942116684025
 20
-1633.236337070243
 30
0.0
 11
1906.048256918467
 21
-1633.412856957027
 31
0.0
  0
LINE
  5
2A7
  8
ZUWAKU
 62
     4
 10
1906.048256918467
 20
-1633.412856957027
 30
0.0
 11
1904.204826285699
 21
-1633.711707705798
 31
0.0
  0
LINE
  5
2A8
  8
ZUWAKU
 62
     4
 10
1904.204826285699
 20
-1633.711707705798
 30
0.0
 11
1903.06396172497
 21
-1633.980355207737
 31
0.0
  0
LINE
  5
2A9
  8
ZUWAKU
 62
     4
 10
1903.217072012438
 20
-1635.521062589432
 30
0.0
 11
1918.408971134556
 21
-1636.02502978802
 31
0.0
  0
ARC
  5
2AA
  8
ZUWAKU
 62
     4
 10
1903.242965013255
 20
-1634.740527948547
 30
0.0
 40
0.7809640024405123
 50
103.2504547662732
 51
268.1000000000001
  0
ARC
  5
2AB
  8
ZUWAKU
 62
     4
 10
1918.434864135374
 20
-1635.244495147136
 30
0.0
 40
0.7809640024405123
 50
268.1000000000001
 51
433.6815281605993
  0
LINE
  5
2AC
  8
ZUWAKU
 62
     4
 10
1237.999999999986
 20
-1233.000000000026
 30
0.0
 11
2425.999999999985
 21
-1233.00000000003
 31
0.0
  0
LINE
  5
2AD
  8
ZUWAKU
 62
     4
 10
2167.249999999986
 20
-1482.000000000026
 30
0.0
 11
2167.249999999986
 21
-1572.000000000025
 31
0.0
  0
LINE
  5
2AE
  8
ZUWAKU
 62
     4
 10
2104.249999999991
 20
-1482.000000000026
 30
0.0
 11
2104.249999999986
 21
-1572.000000000026
 31
0.0
  0
LINE
  5
2AF
  8
ZUWAKU
 62
     4
 10
1897.999999999986
 20
-1338.000000000026
 30
0.0
 11
1897.999999999986
 21
-993.0000000000264
 31
0.0
  0
LINE
  5
2B0
  8
ZUWAKU
 62
     4
 10
1357.999999999986
 20
-1338.000000000026
 30
0.0
 11
1357.999999999986
 21
-993.0000000000246
 31
0.0
  0
LINE
  5
2B1
  8
ZUWAKU
 62
     4
 10
1717.999999999987
 20
-1338.000000000026
 30
0.0
 11
1717.999999999987
 21
-993.0000000000256
 31
0.0
  0
LINE
  5
2B2
  8
ZUWAKU
 62
     4
 10
2017.999999999986
 20
-1338.000000000026
 30
0.0
 11
2017.999999999986
 21
-993.0000000000268
 31
0.0
  0
LINE
  5
2B3
  8
ZUWAKU
 62
     4
 10
1237.999999999985
 20
-1293.000000000026
 30
0.0
 11
1237.999999999985
 21
-993.0000000000242
 31
0.0
  0
TEXT
  5
2B4
  8
ZUWAKU
 62
     4
 10
1255.099999999986
 20
-1401.000000000026
 30
0.0
 40
36.0
  1
図
 50
0.0000000000000496
 41
0.6666666666666656
  7
FDASTYLE0
 72
     5
 11
1283.899999999986
 21
-1401.000000000026
 31
0.0
  0
TEXT
  5
2B5
  8
ZUWAKU
 62
     4
 10
1255.099999999987
 20
-1455.000000000026
 30
0.0
 40
36.0
  1
名
 50
0.0000000000000496
 41
0.6666666666666656
  7
FDASTYLE0
 72
     5
 11
1283.899999999987
 21
-1455.000000000026
 31
0.0
  0
TEXT
  5
2B6
  8
ZUWAKU
 62
     4
 10
1255.099999999986
 20
-1527.000000000027
 30
0.0
 40
36.0
  1
尺
 50
0.0000000000000496
 41
0.6666666666666656
  7
FDASTYLE0
 72
     5
 11
1283.899999999986
 21
-1527.000000000027
 31
0.0
  0
TEXT
  5
2B7
  8
ZUWAKU
 62
     4
 10
1255.099999999986
 20
-1563.000000000027
 30
0.0
 40
36.0
  1
度
 50
0.0000000000000496
 41
0.6666666666666656
  7
FDASTYLE0
 72
     5
 11
1283.899999999986
 21
-1563.000000000027
 31
0.0
  0
TEXT
  5
2B8
  8
ZUWAKU
 62
     4
 10
2020.099999999981
 20
-1401.000000000026
 30
0.0
 40
36.0
  1
図
 50
0.0000000000000496
 41
0.6666666666666656
  7
FDASTYLE0
 72
     5
 11
2048.899999999981
 21
-1401.000000000026
 31
0.0
  0
TEXT
  5
2B9
  8
ZUWAKU
 62
     4
 10
2020.099999999981
 20
-1455.000000000026
 30
0.0
 40
36.0
  1
番
 50
0.0000000000000496
 41
0.6666666666666656
  7
FDASTYLE0
 72
     5
 11
2048.899999999981
 21
-1455.000000000026
 31
0.0
  0
TEXT
  5
2BA
  8
ZUWAKU
 62
     4
 10
2121.349999999986
 20
-1527.000000000026
 30
0.0
 40
36.0
  1
日
 50
0.0000000000000496
 41
0.666666666666671
  7
FDASTYLE0
 72
     5
 11
2150.149999999986
 21
-1527.000000000026
 31
0.0
  0
TEXT
  5
2BB
  8
ZUWAKU
 62
     4
 10
2121.349999999986
 20
-1563.000000000026
 30
0.0
 40
36.0
  1
付
 50
0.0000000000000496
 41
0.666666666666671
  7
FDASTYLE0
 72
     5
 11
2150.149999999986
 21
-1563.000000000026
 31
0.0
  0
TEXT
  5
2BC
  8
ZUWAKU
 62
     4
 10
2187.118853976869
 20
-1545.000000000025
 30
0.0
 40
36.0
  1
2006.06.23
 50
0.0000000000000496
 41
0.65
  7
FDASTYLE0
 72
     5
 11
2421.118853976869
 21
-1545.000000000025
 31
0.0
  0
TEXT
  5
2BD
  8
ZUWAKU
 62
     4
 10
1331.599999999986
 20
-1545.000000000025
 30
0.0
 40
36.0
  1
1/15 
 50
0.0000000000000496
 41
0.8
  7
FDASTYLE0
 72
     5
 11
1475.599999999986
 21
-1545.000000000025
 31
0.0
  0
TEXT
  5
2BE
  8
ZUWAKU
 62
     4
 10
1255.099999999986
 20
-1333.50000000003
 30
0.0
 40
36.0
  1
番
 50
-0.000000000000014
 41
0.6666666666666656
  7
FDASTYLE0
 72
     5
 11
1283.899999999986
 21
-1333.50000000003
 31
0.0
  0
TEXT
  5
2BF
  8
ZUWAKU
 62
     4
 10
1312.099999999986
 20
-1333.50000000003
 30
0.0
 40
36.0
  1
号
 50
-0.000000000000014
 41
0.6666666666666656
  7
FDASTYLE0
 72
     5
 11
1340.899999999986
 21
-1333.50000000003
 31
0.0
  0
TEXT
  5
2C0
  8
ZUWAKU
 62
     4
 10
1406.599999999986
 20
-1333.50000000003
 30
0.0
 40
36.0
  1
品
 50
-0.000000000000014
 41
0.6666666666666656
  7
FDASTYLE0
 72
     5
 11
1435.399999999986
 21
-1333.50000000003
 31
0.0
  0
TEXT
  5
2C1
  8
ZUWAKU
 62
     4
 10
1640.599999999986
 20
-1333.50000000003
 30
0.0
 40
36.0
  1
名
 50
-0.000000000000014
 41
0.6666666666666656
  7
FDASTYLE0
 72
     5
 11
1669.399999999986
 21
-1333.50000000003
 31
0.0
  0
TEXT
  5
2C2
  8
ZUWAKU
 62
     4
 10
1748.599999999986
 20
-1333.50000000003
 30
0.0
 40
36.0
  1
材
 50
-0.000000000000014
 41
0.6666666666666656
  7
FDASTYLE0
 72
     5
 11
1777.399999999986
 21
-1333.50000000003
 31
0.0
  0
TEXT
  5
2C3
  8
ZUWAKU
 62
     4
 10
1838.599999999983
 20
-1333.50000000003
 30
0.0
 40
36.0
  1
質
 50
-0.000000000000014
 41
0.6666666666666656
  7
FDASTYLE0
 72
     5
 11
1867.399999999983
 21
-1333.50000000003
 31
0.0
  0
TEXT
  5
2C4
  8
ZUWAKU
 62
     4
 10
1915.099999999983
 20
-1333.50000000003
 30
0.0
 40
36.0
  1
個
 50
-0.000000000000014
 41
0.6666666666666656
  7
FDASTYLE0
 72
     5
 11
1943.899999999983
 21
-1333.50000000003
 31
0.0
  0
TEXT
  5
2C5
  8
ZUWAKU
 62
     4
 10
1972.099999999985
 20
-1333.50000000003
 30
0.0
 40
36.0
  1
数
 50
-0.000000000000014
 41
0.6666666666666656
  7
FDASTYLE0
 72
     5
 11
2000.899999999985
 21
-1333.50000000003
 31
0.0
  0
TEXT
  5
2C6
  8
ZUWAKU
 62
     4
 10
2066.599999999985
 20
-1333.50000000003
 30
0.0
 40
36.0
  1
記
 50
-0.000000000000014
 41
0.666666666666671
  7
FDASTYLE0
 72
     5
 11
2095.399999999986
 21
-1333.50000000003
 31
0.0
  0
TEXT
  5
2C7
  8
ZUWAKU
 62
     4
 10
2348.599999999985
 20
-1333.50000000003
 30
0.0
 40
36.0
  1
事
 50
-0.000000000000014
 41
0.666666666666671
  7
FDASTYLE0
 72
     5
 11
2377.399999999986
 21
-1333.50000000003
 31
0.0
  0
TEXT
  5
2C8
  8
ZUWAKU
 62
     4
 10
1682.599999999988
 20
-1545.000000000027
 30
0.0
 40
36.0
  1
田渕
 50
0.0000000000000496
 41
0.6666666666666656
  7
FDASTYLE0
 72
     5
 11
1740.199999999988
 21
-1545.000000000027
 31
0.0
  0
TEXT
  5
2C9
  8
ZUWAKU
 62
     4
 10
1615.099999999988
 20
-1527.000000000027
 30
0.0
 40
36.0
  1
製
 50
0.0000000000000496
 41
0.6666666666666656
  7
FDASTYLE0
 72
     5
 11
1643.899999999988
 21
-1527.000000000027
 31
0.0
  0
TEXT
  5
2CA
  8
ZUWAKU
 62
     4
 10
1615.099999999988
 20
-1563.000000000027
 30
0.0
 40
36.0
  1
図
 50
0.0000000000000496
 41
0.6666666666666656
  7
FDASTYLE0
 72
     5
 11
1643.899999999988
 21
-1563.000000000027
 31
0.0
  0
TEXT
  5
2CB
  8
ZUWAKU
 62
     4
 10
1786.099999999987
 20
-1527.000000000026
 30
0.0
 40
36.0
  1
検
 50
0.0000000000000496
 41
0.6666666666666656
  7
FDASTYLE0
 72
     5
 11
1814.899999999987
 21
-1527.000000000026
 31
0.0
  0
TEXT
  5
2CC
  8
ZUWAKU
 62
     4
 10
1786.099999999987
 20
-1563.000000000027
 30
0.0
 40
36.0
  1
図
 50
0.0000000000000496
 41
0.6666666666666656
  7
FDASTYLE0
 72
     5
 11
1814.899999999987
 21
-1563.000000000027
 31
0.0
  0
TEXT
  5
2CD
  8
ZUWAKU
 62
     4
 10
1255.099999999986
 20
-1621.500000000027
 30
0.0
 40
36.0
  1
表
 50
-0.000000000000014
 41
0.6666666666666656
  7
FDASTYLE0
 72
     5
 11
1283.899999999986
 21
-1621.500000000027
 31
0.0
  0
TEXT
  5
2CE
  8
ZUWAKU
 62
     4
 10
1291.099999999986
 20
-1621.500000000027
 30
0.0
 40
36.0
  1
面
 50
-0.000000000000014
 41
0.6666666666666656
  7
FDASTYLE0
 72
     5
 11
1319.899999999986
 21
-1621.500000000027
 31
0.0
  0
TEXT
  5
2CF
  8
ZUWAKU
 62
     4
 10
1255.099999999986
 20
-1684.500000000026
 30
0.0
 40
36.0
  1
処
 50
-0.000000000000014
 41
0.6666666666666656
  7
FDASTYLE0
 72
     5
 11
1283.899999999986
 21
-1684.500000000026
 31
0.0
  0
TEXT
  5
2D0
  8
ZUWAKU
 62
     4
 10
1291.099999999986
 20
-1684.500000000027
 30
0.0
 40
36.0
  1
理
 50
-0.000000000000014
 41
0.6666666666666656
  7
FDASTYLE0
 72
     5
 11
1319.899999999986
 21
-1684.500000000027
 31
0.0
  0
TEXT
  5
2D1
  8
ZUWAKU
 62
     4
 10
2024.599999999986
 20
-1545.000000000026
 30
0.0
 40
36.0
  1
ｍｍ
 50
0.0000000000000496
 41
0.6666666666666656
  7
FDASTYLE0
 72
     5
 11
2082.199999999986
 21
-1545.000000000026
 31
0.0
  0
TEXT
  5
2D2
  8
ZUWAKU
 62
     4
 10
1957.099999999986
 20
-1527.000000000027
 30
0.0
 40
36.0
  1
単
 50
0.0000000000000496
 41
0.6666666666666656
  7
FDASTYLE0
 72
     5
 11
1985.899999999986
 21
-1527.000000000027
 31
0.0
  0
TEXT
  5
2D3
  8
ZUWAKU
 62
     4
 10
1957.099999999986
 20
-1563.000000000027
 30
0.0
 40
36.0
  1
位
 50
0.0000000000000496
 41
0.6666666666666656
  7
FDASTYLE0
 72
     5
 11
1985.899999999986
 21
-1563.000000000027
 31
0.0
  0
TEXT
  5
2D4
  8
ZUWAKU
 62
     4
 10
1282.528911982586
 20
-1285.039883439245
 30
0.0
 40
42.0
  1
1
 41
0.7999999999999978
  7
FDASTYLE0
 72
     5
 11
1316.128911982586
 21
-1285.039883439245
 31
0.0
  0
TEXT
  5
2D5
  8
ZUWAKU
 62
     4
 10
1402.52891198259
 20
-1285.039883439245
 30
0.0
 40
42.0
  1
　
 41
0.6666666666666649
  7
FDASTYLE0
 72
     5
 11
1436.12891198259
 21
-1285.039883439245
 31
0.0
  0
TEXT
  5
2D6
  8
ZUWAKU
 62
     4
 10
1724.581223887926
 20
-1285.039883439246
 30
0.0
 40
42.0
  1
 
 41
0.7999999999999978
  7
FDASTYLE0
 72
     5
 11
1758.181223887925
 21
-1285.039883439246
 31
0.0
  0
TEXT
  5
2D7
  8
ZUWAKU
 62
     4
 10
1942.528911982587
 20
-1285.039883439247
 30
0.0
 40
42.0
  1
 
 41
0.7999999999999978
  7
FDASTYLE0
 72
     5
 11
1976.128911982587
 21
-1285.039883439247
 31
0.0
  0
TEXT
  5
2D8
  8
ZUWAKU
 62
     4
 10
2062.528911982585
 20
-1285.039883439247
 30
0.0
 40
42.0
  1
　
 41
0.6666666666666649
  7
FDASTYLE0
 72
     5
 11
2096.128911982585
 21
-1285.039883439247
 31
0.0
  0
TEXT
  5
2D9
  8
ZUWAKU
 62
     4
 10
1411.301934487237
 20
-1629.933293543517
 30
0.0
 40
42.0
  1
粉体焼付塗装
 41
0.6666666666666664
  7
FDASTYLE0
 72
     5
 11
1612.901934487237
 21
-1629.933293543517
 31
0.0
  0
TEXT
  5
2DA
  8
ZUWAKU
 62
     4
 10
1341.419867476551
 20
-1676.668749780571
 30
0.0
 40
36.0
  1
　
 41
0.6666666666666656
  7
FDASTYLE0
 72
     5
 11
1370.219867476551
 21
-1676.668749780571
 31
0.0
  0
TEXT
  5
2DB
  8
ZUWAKU
 62
     2
 10
2082.349999999981
 20
-1431.000000000025
 30
0.0
 40
42.0
  1
HT-RF-SN1011
 50
0.0000000000000496
 41
0.6499999999999998
  7
FDASTYLE0
 72
     5
 11
2409.949999999981
 21
-1431.000000000025
 31
0.0
  0
TEXT
  5
2DC
  8
ZUWAKU
 62
     2
 10
1996.487682311501
 20
-1632.428508912294
 30
0.0
 40
36.0
  1
株
 50
0.0000000000000623
 41
0.6666666666666656
  7
FDASTYLE0
 72
     5
 11
2025.287682311501
 21
-1632.428508912294
 31
0.0
  0
TEXT
  5
2DD
  8
ZUWAKU
 62
     2
 10
2039.687682311503
 20
-1632.428508912294
 30
0.0
 40
36.0
  1
式
 50
0.0000000000000623
 41
0.666666666666671
  7
FDASTYLE0
 72
     5
 11
2068.487682311503
 21
-1632.428508912294
 31
0.0
  0
TEXT
  5
2DE
  8
ZUWAKU
 62
     2
 10
1996.487682311501
 20
-1675.628508912304
 30
0.0
 40
36.0
  1
会
 50
0.0000000000000623
 41
0.6666666666666656
  7
FDASTYLE0
 72
     5
 11
2025.287682311501
 21
-1675.628508912304
 31
0.0
  0
TEXT
  5
2DF
  8
ZUWAKU
 62
     2
 10
2039.687682311503
 20
-1675.628508912304
 30
0.0
 40
36.0
  1
社
 50
0.0000000000000623
 41
0.666666666666671
  7
FDASTYLE0
 72
     5
 11
2068.487682311503
 21
-1675.628508912304
 31
0.0
  0
TEXT
  5
2E0
  8
ZUWAKU
 62
     2
 10
1344.919618900585
 20
-1406.001125425176
 30
0.0
 40
48.0
  1
HT-1000用　タンクルーフ　
 50
0.0000000000000496
 41
0.6891891891891891
  7
FDASTYLE0
 72
     5
 11
1956.919618900585
 21
-1406.001125425176
 31
0.0
  0
TEXT
  5
2E1
  8
ZUWAKU
 62
     2
 10
1236.350000143032
 20
-1468.441793232649
 30
0.0
 40
48.0
  1
　
 50
0.0000000000000496
 41
0.6250000000000001
  7
FDASTYLE0
 72
     5
 11
1272.350000143032
 21
-1468.441793232649
 31
0.0
  0
LINE
  5
2E2
  8
ZUWAKU
 62
     6
 10
1889.220779513471
 20
-1645.495735821757
 30
0.0
 11
1889.105367329141
 21
-1646.376332203673
 31
0.0
  0
LINE
  5
2E3
  8
ZUWAKU
 62
     6
 10
1889.105367329141
 20
-1646.376332203673
 30
0.0
 11
1889.093829805549
 21
-1647.835057638847
 31
0.0
  0
LINE
  5
2E4
  8
ZUWAKU
 62
     6
 10
1889.093829805549
 20
-1647.835057638847
 30
0.0
 11
1889.259219468744
 21
-1649.30781347303
 31
0.0
  0
LINE
  5
2E5
  8
ZUWAKU
 62
     6
 10
1889.259219468744
 20
-1649.30781347303
 30
0.0
 11
1889.600916818042
 21
-1650.784095248278
 31
0.0
  0
LINE
  5
2E6
  8
ZUWAKU
 62
     6
 10
1889.600916818042
 20
-1650.784095248278
 30
0.0
 11
1890.117099493426
 21
-1652.253050264398
 31
0.0
  0
LINE
  5
2E7
  8
ZUWAKU
 62
     6
 10
1890.117099493426
 20
-1652.253050264398
 30
0.0
 11
1890.804622723444
 21
-1653.703567792219
 31
0.0
  0
LINE
  5
2E8
  8
ZUWAKU
 62
     6
 10
1890.804622723444
 20
-1653.703567792219
 30
0.0
 11
1891.65894540689
 21
-1655.124423149105
 31
0.0
  0
LINE
  5
2E9
  8
ZUWAKU
 62
     6
 10
1891.65894540689
 20
-1655.124423149105
 30
0.0
 11
1892.674111688408
 21
-1656.504443488909
 31
0.0
  0
LINE
  5
2EA
  8
ZUWAKU
 62
     6
 10
1892.674111688408
 20
-1656.504443488909
 30
0.0
 11
1893.842781305559
 21
-1657.832670082166
 31
0.0
  0
LINE
  5
2EB
  8
ZUWAKU
 62
     6
 10
1893.842781305559
 20
-1657.832670082166
 30
0.0
 11
1895.1562952376
 21
-1659.098503386997
 31
0.0
  0
LINE
  5
2EC
  8
ZUWAKU
 62
     6
 10
1895.1562952376
 20
-1659.098503386997
 30
0.0
 11
1896.604763629029
 21
-1660.291826733289
 31
0.0
  0
LINE
  5
2ED
  8
ZUWAKU
 62
     6
 10
1896.604763629029
 20
-1660.291826733289
 30
0.0
 11
1898.177166466251
 21
-1661.403109904321
 31
0.0
  0
LINE
  5
2EE
  8
ZUWAKU
 62
     6
 10
1898.177166466251
 20
-1661.403109904321
 30
0.0
 11
1899.861461216156
 21
-1662.423495974171
 31
0.0
  0
LINE
  5
2EF
  8
ZUWAKU
 62
     6
 10
1899.861461216156
 20
-1662.423495974171
 30
0.0
 11
1901.644694412422
 21
-1663.344874869533
 31
0.0
  0
LINE
  5
2F0
  8
ZUWAKU
 62
     6
 10
1901.644694412422
 20
-1663.344874869533
 30
0.0
 11
1903.513115854064
 21
-1664.159946417401
 31
0.0
  0
LINE
  5
2F1
  8
ZUWAKU
 62
     6
 10
1903.513115854064
 20
-1664.159946417401
 30
0.0
 11
1905.452294924836
 21
-1664.862274778306
 31
0.0
  0
LINE
  5
2F2
  8
ZUWAKU
 62
     6
 10
1905.452294924836
 20
-1664.862274778306
 30
0.0
 11
1907.447238871576
 21
-1665.446335434023
 31
0.0
  0
LINE
  5
2F3
  8
ZUWAKU
 62
     6
 10
1907.447238871576
 20
-1665.446335434023
 30
0.0
 11
1909.482512941171
 21
-1665.907555372904
 31
0.0
  0
LINE
  5
2F4
  8
ZUWAKU
 62
     6
 10
1909.482512941171
 20
-1665.907555372904
 30
0.0
 11
1911.542362228249
 21
-1666.242346778055
 31
0.0
  0
LINE
  5
2F5
  8
ZUWAKU
 62
     6
 10
1911.542362228249
 20
-1666.242346778055
 30
0.0
 11
1913.610835019015
 21
-1666.448134323918
 31
0.0
  0
LINE
  5
2F6
  8
ZUWAKU
 62
     6
 10
1913.610835019015
 20
-1666.448134323918
 30
0.0
 11
1915.671907379284
 21
-1666.52337607282
 31
0.0
  0
LINE
  5
2F7
  8
ZUWAKU
 62
     6
 10
1915.671907379284
 20
-1666.52337607282
 30
0.0
 11
1917.709608749436
 21
-1666.467577884639
 31
0.0
  0
LINE
  5
2F8
  8
ZUWAKU
 62
     6
 10
1917.709608749436
 20
-1666.467577884639
 30
0.0
 11
1919.708148387189
 21
-1666.28130116183
 31
0.0
  0
LINE
  5
2F9
  8
ZUWAKU
 62
     6
 10
1919.708148387189
 20
-1666.28130116183
 30
0.0
 11
1921.652042635225
 21
-1665.966163591013
 31
0.0
  0
LINE
  5
2FA
  8
ZUWAKU
 62
     6
 10
1921.652042635225
 20
-1665.966163591013
 30
0.0
 11
1923.526243161791
 21
-1665.524832247317
 31
0.0
  0
LINE
  5
2FB
  8
ZUWAKU
 62
     6
 10
1923.526243161791
 20
-1665.524832247317
 30
0.0
 11
1925.316266461773
 21
-1664.961007917126
 31
0.0
  0
LINE
  5
2FC
  8
ZUWAKU
 62
     6
 10
1925.316266461773
 20
-1664.961007917126
 30
0.0
 11
1927.008324874463
 21
-1664.27939869381
 31
0.0
  0
LINE
  5
2FD
  8
ZUWAKU
 62
     6
 10
1927.008324874463
 20
-1664.27939869381
 30
0.0
 11
1928.589458914203
 21
-1663.485679785447
 31
0.0
  0
LINE
  5
2FE
  8
ZUWAKU
 62
     6
 10
1928.589458914203
 20
-1663.485679785447
 30
0.0
 11
1930.047669418451
 21
-1662.586435189881
 31
0.0
  0
LINE
  5
2FF
  8
ZUWAKU
 62
     6
 10
1930.047669418451
 20
-1662.586435189881
 30
0.0
 11
1931.37204540212
 21
-1661.589075953411
 31
0.0
  0
LINE
  5
300
  8
ZUWAKU
 62
     6
 10
1931.37204540212
 20
-1661.589075953411
 30
0.0
 11
1932.555653932986
 21
-1660.499175267059
 31
0.0
  0
ARC
  5
301
  8
ZUWAKU
 62
     6
 10
1946.327317596437
 20
-1661.73402100474
 30
0.0
 40
0.3904820012202562
 50
348.9999999999993
 51
405.0000000000003
  0
LINE
  5
302
  8
ZUWAKU
 62
     6
 10
1946.603430067432
 20
-1661.457908533736
 30
0.0
 11
1937.126306585727
 21
-1651.980785052031
 31
0.0
  0
ARC
  5
303
  8
ZUWAKU
 62
     6
 10
1938.497715824391
 20
-1651.695519464741
 30
0.0
 40
1.171446003660768
 50
168.9999999999942
 51
225.0
  0
LINE
  5
304
  8
ZUWAKU
 62
     6
 10
1937.347792583258
 20
-1651.471997029647
 30
0.0
 11
1937.573315167717
 21
-1650.311783912085
 31
0.0
  0
LINE
  5
305
  8
ZUWAKU
 62
     6
 10
1937.769116598124
 20
-1648.817816596668
 30
0.0
 11
1937.781402879377
 21
-1647.26442337352
 31
0.0
  0
LINE
  5
306
  8
ZUWAKU
 62
     6
 10
1932.951887810676
 20
-1636.898164821657
 30
0.0
 11
1931.457666353966
 21
-1635.458183685131
 31
0.0
  0
LINE
  5
307
  8
ZUWAKU
 62
     6
 10
1931.457666353966
 20
-1635.458183685131
 30
0.0
 11
1929.963463640002
 21
-1634.227182033176
 31
0.0
  0
LINE
  5
308
  8
ZUWAKU
 62
     6
 10
1929.963463640002
 20
-1634.227182033176
 30
0.0
 11
1928.344985991212
 21
-1633.083335856342
 31
0.0
  0
LINE
  5
309
  8
ZUWAKU
 62
     6
 10
1928.344985991212
 20
-1633.083335856342
 30
0.0
 11
1926.614475401672
 21
-1632.034951124749
 31
0.0
  0
LINE
  5
30A
  8
ZUWAKU
 62
     6
 10
1926.614475401672
 20
-1632.034951124749
 30
0.0
 11
1924.784967135635
 21
-1631.089662360085
 31
0.0
  0
LINE
  5
30B
  8
ZUWAKU
 62
     6
 10
1924.784967135635
 20
-1631.089662360085
 30
0.0
 11
1922.870206136052
 21
-1630.254375857286
 31
0.0
  0
LINE
  5
30C
  8
ZUWAKU
 62
     6
 10
1922.870206136052
 20
-1630.254375857286
 30
0.0
 11
1920.884554089419
 21
-1629.535215998229
 31
0.0
  0
LINE
  5
30D
  8
ZUWAKU
 62
     6
 10
1920.884554089419
 20
-1629.535215998229
 30
0.0
 11
1918.84288857725
 21
-1628.937476648339
 31
0.0
  0
LINE
  5
30E
  8
ZUWAKU
 62
     6
 10
1918.84288857725
 20
-1628.937476648339
 30
0.0
 11
1916.760495881797
 21
-1628.465579007575
 31
0.0
  0
LINE
  5
30F
  8
ZUWAKU
 62
     6
 10
1916.760495881797
 20
-1628.465579007575
 30
0.0
 11
1914.652959028047
 21
-1628.123036847296
 31
0.0
  0
LINE
  5
310
  8
ZUWAKU
 62
     6
 10
1914.652959028047
 20
-1628.123036847296
 30
0.0
 11
1912.536042627125
 21
-1627.912429759349
 31
0.0
  0
LINE
  5
311
  8
ZUWAKU
 62
     6
 10
1912.536042627125
 20
-1627.912429759349
 30
0.0
 11
1910.425576083781
 21
-1627.835384820622
 31
0.0
  0
LINE
  5
312
  8
ZUWAKU
 62
     6
 10
1910.425576083781
 20
-1627.835384820622
 30
0.0
 11
1908.337336768274
 21
-1627.892566884689
 31
0.0
  0
LINE
  5
313
  8
ZUWAKU
 62
     6
 10
1908.337336768274
 20
-1627.892566884689
 30
0.0
 11
1906.286934838293
 21
-1628.08367750603
 31
0.0
  0
LINE
  5
314
  8
ZUWAKU
 62
     6
 10
1906.286934838293
 20
-1628.08367750603
 30
0.0
 11
1904.289701526615
 21
-1628.40746222572
 31
0.0
  0
LINE
  5
315
  8
ZUWAKU
 62
     6
 10
1904.289701526615
 20
-1628.40746222572
 30
0.0
 11
1902.36058286199
 21
-1628.861725534455
 31
0.0
  0
LINE
  5
316
  8
ZUWAKU
 62
     6
 10
1902.36058286199
 20
-1628.861725534455
 30
0.0
 11
1900.514040894816
 21
-1629.443352202544
 31
0.0
  0
LINE
  5
317
  8
ZUWAKU
 62
     6
 10
1900.514040894816
 20
-1629.443352202544
 30
0.0
 11
1898.76396442191
 21
-1630.148332749616
 31
0.0
  0
LINE
  5
318
  8
ZUWAKU
 62
     6
 10
1898.76396442191
 20
-1630.148332749616
 30
0.0
 11
1897.123590682478
 21
-1630.971789598339
 31
0.0
  0
LINE
  5
319
  8
ZUWAKU
 62
     6
 10
1897.123590682478
 20
-1630.971789598339
 30
0.0
 11
1895.605438133422
 21
-1631.907999062617
 31
0.0
  0
LINE
  5
31A
  8
ZUWAKU
 62
     6
 10
1895.605438133422
 20
-1631.907999062617
 30
0.0
 11
1894.221247709639
 21
-1632.950403275013
 31
0.0
  0
LINE
  5
31B
  8
ZUWAKU
 62
     6
 10
1894.221247709639
 20
-1632.950403275013
 30
0.0
 11
1892.981925642173
 21
-1634.091606583982
 31
0.0
  0
LINE
  5
31C
  8
ZUWAKU
 62
     6
 10
1892.981925642173
 20
-1634.091606583982
 30
0.0
 11
1891.715358331953
 21
-1635.53020824995
 31
0.0
  0
LINE
  5
31D
  8
ZUWAKU
 62
     6
 10
1889.534363685842
 20
-1639.941100988824
 30
0.0
 11
1889.270380765611
 21
-1640.959405797458
 31
0.0
  0
LINE
  5
31E
  8
ZUWAKU
 62
     6
 10
1889.270380765611
 20
-1640.959405797458
 30
0.0
 11
1889.069881052705
 21
-1642.489221065994
 31
0.0
  0
LINE
  5
31F
  8
ZUWAKU
 62
     6
 10
1889.069881052705
 20
-1642.489221065994
 30
0.0
 11
1889.057594771452
 21
-1644.042614289142
 31
0.0
  0
LINE
  5
320
  8
ZUWAKU
 62
     6
 10
1889.057594771452
 20
-1644.042614289142
 30
0.0
 11
1889.233252663869
 21
-1645.606806275998
 31
0.0
  0
LINE
  5
321
  8
ZUWAKU
 62
     6
 10
1889.233252663869
 20
-1645.606806275998
 30
0.0
 11
1889.594878652821
 21
-1647.169188477813
 31
0.0
  0
LINE
  5
322
  8
ZUWAKU
 62
     6
 10
1889.594878652821
 20
-1647.169188477813
 30
0.0
 11
1890.138942383032
 21
-1648.717487527129
 31
0.0
  0
LINE
  5
323
  8
ZUWAKU
 62
     6
 10
1890.138942383032
 20
-1648.717487527129
 30
0.0
 11
1890.860519510628
 21
-1650.239851027819
 31
0.0
  0
LINE
  5
324
  8
ZUWAKU
 62
     6
 10
1890.860519510628
 20
-1650.239851027819
 30
0.0
 11
1891.75342703223
 21
-1651.724878242786
 31
0.0
  0
LINE
  5
325
  8
ZUWAKU
 62
     6
 10
1891.75342703223
 20
-1651.724878242786
 30
0.0
 11
1892.810323326361
 21
-1653.161626497234
 31
0.0
  0
LINE
  5
326
  8
ZUWAKU
 62
     6
 10
1892.810323326361
 20
-1653.161626497234
 30
0.0
 11
1894.022779008078
 21
-1654.539617210769
 31
0.0
  0
LINE
  5
327
  8
ZUWAKU
 62
     6
 10
1894.022779008078
 20
-1654.539617210769
 30
0.0
 11
1895.381331296855
 21
-1655.848853977531
 31
0.0
  0
LINE
  5
328
  8
ZUWAKU
 62
     6
 10
1895.381331296855
 20
-1655.848853977531
 30
0.0
 11
1896.875534010819
 21
-1657.079855629486
 31
0.0
  0
LINE
  5
329
  8
ZUWAKU
 62
     6
 10
1896.875534010819
 20
-1657.079855629486
 30
0.0
 11
1898.494011659617
 21
-1658.22370180632
 31
0.0
  0
LINE
  5
32A
  8
ZUWAKU
 62
     6
 10
1898.494011659617
 20
-1658.22370180632
 30
0.0
 11
1900.224522249157
 21
-1659.272086537913
 31
0.0
  0
LINE
  5
32B
  8
ZUWAKU
 62
     6
 10
1900.224522249157
 20
-1659.272086537913
 30
0.0
 11
1902.054030515194
 21
-1660.217375302594
 31
0.0
  0
LINE
  5
32C
  8
ZUWAKU
 62
     6
 10
1902.054030515194
 20
-1660.217375302594
 30
0.0
 11
1903.968791514769
 21
-1661.052661805376
 31
0.0
  0
LINE
  5
32D
  8
ZUWAKU
 62
     6
 10
1903.968791514769
 20
-1661.052661805376
 30
0.0
 11
1905.954443561402
 21
-1661.771821664433
 31
0.0
  0
LINE
  5
32E
  8
ZUWAKU
 62
     6
 10
1905.954443561402
 20
-1661.771821664433
 30
0.0
 11
1907.996109073571
 21
-1662.36956101434
 31
0.0
  0
LINE
  5
32F
  8
ZUWAKU
 62
     6
 10
1907.996109073571
 20
-1662.36956101434
 30
0.0
 11
1910.078501769031
 21
-1662.841458655087
 31
0.0
  0
LINE
  5
330
  8
ZUWAKU
 62
     6
 10
1910.078501769031
 20
-1662.841458655087
 30
0.0
 11
1912.186038622774
 21
-1663.184000815366
 31
0.0
  0
LINE
  5
331
  8
ZUWAKU
 62
     6
 10
1912.186038622774
 20
-1663.184000815366
 30
0.0
 11
1914.302955023696
 21
-1663.394607903313
 31
0.0
  0
LINE
  5
332
  8
ZUWAKU
 62
     6
 10
1914.302955023696
 20
-1663.394607903313
 30
0.0
 11
1916.413421567047
 21
-1663.47165284204
 31
0.0
  0
LINE
  5
333
  8
ZUWAKU
 62
     6
 10
1916.413421567047
 20
-1663.47165284204
 30
0.0
 11
1918.501660882546
 21
-1663.414470777973
 31
0.0
  0
LINE
  5
334
  8
ZUWAKU
 62
     6
 10
1918.501660882546
 20
-1663.414470777973
 30
0.0
 11
1920.552062812544
 21
-1663.223360156632
 31
0.0
  0
LINE
  5
335
  8
ZUWAKU
 62
     6
 10
1920.552062812544
 20
-1663.223360156632
 30
0.0
 11
1922.549296124205
 21
-1662.899575436942
 31
0.0
  0
LINE
  5
336
  8
ZUWAKU
 62
     6
 10
1922.549296124205
 20
-1662.899575436942
 30
0.0
 11
1924.478414788847
 21
-1662.445312128223
 31
0.0
  0
LINE
  5
337
  8
ZUWAKU
 62
     6
 10
1924.478414788847
 20
-1662.445312128223
 30
0.0
 11
1926.324956756012
 21
-1661.863685460118
 31
0.0
  0
LINE
  5
338
  8
ZUWAKU
 62
     6
 10
1926.324956756012
 20
-1661.863685460118
 30
0.0
 11
1928.075033228927
 21
-1661.158704913046
 31
0.0
  0
LINE
  5
339
  8
ZUWAKU
 62
     6
 10
1928.075033228927
 20
-1661.158704913046
 30
0.0
 11
1929.715406968343
 21
-1660.335248064323
 31
0.0
  0
LINE
  5
33A
  8
ZUWAKU
 62
     6
 10
1929.715406968343
 20
-1660.335248064323
 30
0.0
 11
1931.233559517399
 21
-1659.399038600061
 31
0.0
  0
LINE
  5
33B
  8
ZUWAKU
 62
     6
 10
1931.233559517399
 20
-1659.399038600061
 30
0.0
 11
1932.61774994119
 21
-1658.356634387649
 31
0.0
  0
LINE
  5
33C
  8
ZUWAKU
 62
     6
 10
1932.61774994119
 20
-1658.356634387649
 30
0.0
 11
1933.857072008647
 21
-1657.21543107868
 31
0.0
  0
LINE
  5
33D
  8
ZUWAKU
 62
     6
 10
1933.857072008647
 20
-1657.21543107868
 30
0.0
 11
1934.028446571231
 21
-1657.020779180405
 31
0.0
  0
ARC
  5
33E
  8
ZUWAKU
 62
     6
 10
1944.398936510863
 20
-1660.247419872748
 30
0.0
 40
0.7028676021964606
 50
248.9511701848124
 51
405.0000000000002
  0
LINE
  5
33F
  8
ZUWAKU
 62
     6
 10
1937.126306585727
 20
-1651.980785052031
 30
0.0
 11
1937.181438095568
 21
-1651.841160397075
 31
0.0
  0
LINE
  5
340
  8
ZUWAKU
 62
     6
 10
1937.181438095568
 20
-1651.841160397075
 30
0.0
 11
1937.56861688521
 21
-1650.347631865204
 31
0.0
  0
LINE
  5
341
  8
ZUWAKU
 62
     6
 10
1937.56861688521
 20
-1650.347631865204
 30
0.0
 11
1937.769116598124
 21
-1648.817816596668
 31
0.0
  0
LINE
  5
342
  8
ZUWAKU
 62
     6
 10
1937.781402879377
 20
-1647.264423373536
 30
0.0
 11
1937.605744986951
 21
-1645.700231386664
 31
0.0
  0
LINE
  5
343
  8
ZUWAKU
 62
     6
 10
1937.605744986951
 20
-1645.700231386664
 30
0.0
 11
1937.244118998
 21
-1644.137849184849
 31
0.0
  0
LINE
  5
344
  8
ZUWAKU
 62
     6
 10
1937.244118998
 20
-1644.137849184849
 30
0.0
 11
1936.739747581746
 21
-1642.702506703944
 31
0.0
  0
LINE
  5
345
  8
ZUWAKU
 62
     6
 10
1890.010765074603
 20
-1637.726638155788
 30
0.0
 11
1890.469397790513
 21
-1637.903139367888
 31
0.0
  0
LINE
  5
346
  8
ZUWAKU
 62
     6
 10
1890.469397790513
 20
-1637.903139367888
 30
0.0
 11
1890.554825607733
 21
-1637.745192944501
 31
0.0
  0
LINE
  5
347
  8
ZUWAKU
 62
     6
 10
1890.554825607733
 20
-1637.745192944501
 30
0.0
 11
1890.010765074603
 21
-1637.726638155788
 31
0.0
  0
LINE
  5
348
  8
ZUWAKU
 62
     6
 10
1891.732858011425
 20
-1640.785023891639
 30
0.0
 11
1891.571687239834
 21
-1641.406734461353
 31
0.0
  0
LINE
  5
349
  8
ZUWAKU
 62
     6
 10
1891.571687239834
 20
-1641.406734461353
 30
0.0
 11
1891.396205805878
 21
-1642.745659954621
 31
0.0
  0
LINE
  5
34A
  8
ZUWAKU
 62
     6
 10
1891.396205805878
 20
-1642.745659954621
 30
0.0
 11
1891.385436792115
 21
-1644.107220271805
 31
0.0
  0
LINE
  5
34B
  8
ZUWAKU
 62
     6
 10
1891.385436792115
 20
-1644.107220271805
 30
0.0
 11
1891.539824921259
 21
-1645.482010047236
 31
0.0
  0
LINE
  5
34C
  8
ZUWAKU
 62
     6
 10
1891.539824921259
 20
-1645.482010047236
 30
0.0
 11
1891.858834420928
 21
-1646.860270403863
 31
0.0
  0
LINE
  5
34D
  8
ZUWAKU
 62
     6
 10
1891.858834420928
 20
-1646.860270403863
 30
0.0
 11
1892.340815599362
 21
-1648.23189464368
 31
0.0
  0
LINE
  5
34E
  8
ZUWAKU
 62
     6
 10
1892.340815599362
 20
-1648.23189464368
 30
0.0
 11
1892.982883979133
 21
-1649.586512783476
 31
0.0
  0
LINE
  5
34F
  8
ZUWAKU
 62
     6
 10
1892.982883979133
 20
-1649.586512783476
 30
0.0
 11
1893.780844397902
 21
-1650.913629992902
 31
0.0
  0
LINE
  5
350
  8
ZUWAKU
 62
     6
 10
1893.780844397902
 20
-1650.913629992902
 30
0.0
 11
1894.729169951165
 21
-1652.202786829645
 31
0.0
  0
LINE
  5
351
  8
ZUWAKU
 62
     6
 10
1894.729169951165
 20
-1652.202786829645
 30
0.0
 11
1895.821029074809
 21
-1653.443716090439
 31
0.0
  0
LINE
  5
352
  8
ZUWAKU
 62
     6
 10
1895.821029074809
 20
-1653.443716090439
 30
0.0
 11
1897.04834732231
 21
-1654.626482618754
 31
0.0
  0
LINE
  5
353
  8
ZUWAKU
 62
     6
 10
1897.04834732231
 20
-1654.626482618754
 30
0.0
 11
1898.40189083937
 21
-1655.741601932857
 31
0.0
  0
LINE
  5
354
  8
ZUWAKU
 62
     6
 10
1898.40189083937
 20
-1655.741601932857
 30
0.0
 11
1899.871362048015
 21
-1656.780138995885
 31
0.0
  0
LINE
  5
355
  8
ZUWAKU
 62
     6
 10
1899.871362048015
 20
-1656.780138995885
 30
0.0
 11
1901.445501786961
 21
-1657.733790523743
 31
0.0
  0
LINE
  5
356
  8
ZUWAKU
 62
     6
 10
1901.445501786961
 20
-1657.733790523743
 30
0.0
 11
1903.112194936063
 21
-1658.594954333318
 31
0.0
  0
LINE
  5
357
  8
ZUWAKU
 62
     6
 10
1903.112194936063
 20
-1658.594954333318
 30
0.0
 11
1904.858578234442
 21
-1659.356788524711
 31
0.0
  0
LINE
  5
358
  8
ZUWAKU
 62
     6
 10
1904.858578234442
 20
-1659.356788524711
 30
0.0
 11
1906.671149849813
 21
-1660.0132624269
 31
0.0
  0
LINE
  5
359
  8
ZUWAKU
 62
     6
 10
1906.671149849813
 20
-1660.0132624269
 30
0.0
 11
1908.535880588198
 21
-1660.559200501789
 31
0.0
  0
LINE
  5
35A
  8
ZUWAKU
 62
     6
 10
1908.535880588198
 20
-1660.559200501789
 30
0.0
 11
1910.438326697636
 21
-1660.990319873591
 31
0.0
  0
LINE
  5
35B
  8
ZUWAKU
 62
     6
 10
1910.438326697636
 20
-1660.990319873591
 30
0.0
 11
1912.363744173708
 21
-1661.303261808883
 31
0.0
  0
LINE
  5
35C
  8
ZUWAKU
 62
     6
 10
1912.363744173708
 20
-1661.303261808883
 30
0.0
 11
1914.297204409912
 21
-1661.495617269801
 31
0.0
  0
LINE
  5
35D
  8
ZUWAKU
 62
     6
 10
1914.297204409912
 20
-1661.495617269801
 30
0.0
 11
1916.223710999091
 21
-1661.565946544887
 31
0.0
  0
LINE
  5
35E
  8
ZUWAKU
 62
     6
 10
1916.223710999091
 20
-1661.565946544887
 30
0.0
 11
1918.128317508424
 21
-1661.513792880974
 31
0.0
  0
LINE
  5
35F
  8
ZUWAKU
 62
     6
 10
1918.128317508424
 20
-1661.513792880974
 30
0.0
 11
1919.996246127859
 21
-1661.339689943473
 31
0.0
  0
LINE
  5
360
  8
ZUWAKU
 62
     6
 10
1919.996246127859
 20
-1661.339689943473
 30
0.0
 11
1921.813007228802
 21
-1661.045162769114
 31
0.0
  0
LINE
  5
361
  8
ZUWAKU
 62
     6
 10
1921.813007228802
 20
-1661.045162769114
 30
0.0
 11
1923.564520039526
 21
-1660.632721575496
 31
0.0
  0
LINE
  5
362
  8
ZUWAKU
 62
     6
 10
1923.564520039526
 20
-1660.632721575496
 30
0.0
 11
1925.237234782507
 21
-1660.105847277509
 31
0.0
  0
LINE
  5
363
  8
ZUWAKU
 62
     6
 10
1925.237234782507
 20
-1660.105847277509
 30
0.0
 11
1926.818256585984
 21
-1659.46896675647
 31
0.0
  0
LINE
  5
364
  8
ZUWAKU
 62
     6
 10
1926.818256585984
 20
-1659.46896675647
 30
0.0
 11
1928.295471019936
 21
-1658.727414807995
 31
0.0
  0
LINE
  5
365
  8
ZUWAKU
 62
     6
 10
1928.295471019936
 20
-1658.727414807995
 30
0.0
 11
1929.657669812796
 21
-1657.88737840792
 31
0.0
  0
LINE
  5
366
  8
ZUWAKU
 62
     6
 10
1929.657669812796
 20
-1657.88737840792
 30
0.0
 11
1930.894672686545
 21
-1656.955817992396
 31
0.0
  0
LINE
  5
367
  8
ZUWAKU
 62
     6
 10
1930.894672686545
 20
-1656.955817992396
 30
0.0
 11
1931.766894845274
 21
-1656.152650809439
 31
0.0
  0
LINE
  5
368
  8
ZUWAKU
 62
     6
 10
1935.561296236904
 20
-1655.099607993906
 30
0.0
 11
1935.862094600195
 21
-1654.670534986312
 31
0.0
  0
LINE
  5
369
  8
ZUWAKU
 62
     6
 10
1935.862094600195
 20
-1654.670534986312
 30
0.0
 11
1936.086958610443
 21
-1654.254786728679
 31
0.0
  0
LINE
  5
36A
  8
ZUWAKU
 62
     6
 10
1936.086958610443
 20
-1654.254786728679
 30
0.0
 11
1937.785616381622
 21
-1655.953444499858
 31
0.0
  0
LINE
  5
36B
  8
ZUWAKU
 62
     6
 10
1934.699954244168
 20
-1643.649347246915
 30
0.0
 11
1934.980163229892
 21
-1644.446767258799
 31
0.0
  0
LINE
  5
36C
  8
ZUWAKU
 62
     6
 10
1934.980163229892
 20
-1644.446767258799
 30
0.0
 11
1935.29917272957
 21
-1645.825027615426
 31
0.0
  0
LINE
  5
36D
  8
ZUWAKU
 62
     6
 10
1935.29917272957
 20
-1645.825027615426
 30
0.0
 11
1935.453560858714
 21
-1647.199817390873
 31
0.0
  0
LINE
  5
36E
  8
ZUWAKU
 62
     6
 10
1935.453560858714
 20
-1647.199817390873
 30
0.0
 11
1935.442791844951
 21
-1648.561377708041
 31
0.0
  0
LINE
  5
36F
  8
ZUWAKU
 62
     6
 10
1935.442791844951
 20
-1648.561377708041
 30
0.0
 11
1935.267310410995
 21
-1649.900303201325
 31
0.0
  0
LINE
  5
370
  8
ZUWAKU
 62
     6
 10
1935.267310410995
 20
-1649.900303201325
 30
0.0
 11
1935.22171344066
 21
-1650.076191906964
 31
0.0
  0
LINE
  5
371
  8
ZUWAKU
 62
     6
 10
1935.22171344066
 20
-1650.076191906964
 30
0.0
 11
1930.666934306619
 21
-1645.521412772939
 31
0.0
  0
LINE
  5
372
  8
ZUWAKU
 62
     6
 10
1894.612956520075
 20
-1635.626331481791
 30
0.0
 11
1894.841560642306
 21
-1635.36667669012
 31
0.0
  0
LINE
  5
373
  8
ZUWAKU
 62
     6
 10
1894.841560642306
 20
-1635.36667669012
 30
0.0
 11
1895.944324964284
 21
-1634.351219670282
 31
0.0
  0
LINE
  5
374
  8
ZUWAKU
 62
     6
 10
1895.944324964284
 20
-1634.351219670282
 30
0.0
 11
1897.181327838025
 21
-1633.419659254742
 31
0.0
  0
LINE
  5
375
  8
ZUWAKU
 62
     6
 10
1897.181327838025
 20
-1633.419659254742
 30
0.0
 11
1898.543526630885
 21
-1632.579622854667
 31
0.0
  0
LINE
  5
376
  8
ZUWAKU
 62
     6
 10
1898.543526630885
 20
-1632.579622854667
 30
0.0
 11
1900.020741064845
 21
-1631.838070906192
 31
0.0
  0
LINE
  5
377
  8
ZUWAKU
 62
     6
 10
1900.020741064845
 20
-1631.838070906192
 30
0.0
 11
1901.601762868322
 21
-1631.201190385154
 31
0.0
  0
LINE
  5
378
  8
ZUWAKU
 62
     6
 10
1901.601762868322
 20
-1631.201190385154
 30
0.0
 11
1903.274477611303
 21
-1630.674316087166
 31
0.0
  0
LINE
  5
379
  8
ZUWAKU
 62
     6
 10
1903.274477611303
 20
-1630.674316087166
 30
0.0
 11
1905.025990422018
 21
-1630.261874893548
 31
0.0
  0
LINE
  5
37A
  8
ZUWAKU
 62
     6
 10
1905.025990422018
 20
-1630.261874893548
 30
0.0
 11
1906.84275152297
 21
-1629.967347719206
 31
0.0
  0
LINE
  5
37B
  8
ZUWAKU
 62
     6
 10
1906.84275152297
 20
-1629.967347719206
 30
0.0
 11
1908.710680142405
 21
-1629.793244781688
 31
0.0
  0
LINE
  5
37C
  8
ZUWAKU
 62
     6
 10
1908.710680142405
 20
-1629.793244781688
 30
0.0
 11
1910.61528665173
 21
-1629.741091117775
 31
0.0
  0
LINE
  5
37D
  8
ZUWAKU
 62
     6
 10
1910.61528665173
 20
-1629.741091117775
 30
0.0
 11
1912.541793240917
 21
-1629.811420392877
 31
0.0
  0
LINE
  5
37E
  8
ZUWAKU
 62
     6
 10
1912.541793240917
 20
-1629.811420392877
 30
0.0
 11
1914.475253477112
 21
-1630.003775853779
 31
0.0
  0
LINE
  5
37F
  8
ZUWAKU
 62
     6
 10
1914.475253477112
 20
-1630.003775853779
 30
0.0
 11
1916.400670953193
 21
-1630.316717789071
 31
0.0
  0
LINE
  5
380
  8
ZUWAKU
 62
     6
 10
1916.400670953193
 20
-1630.316717789071
 30
0.0
 11
1918.303117062623
 21
-1630.747837160873
 31
0.0
  0
LINE
  5
381
  8
ZUWAKU
 62
     6
 10
1918.303117062623
 20
-1630.747837160873
 30
0.0
 11
1920.167847801015
 21
-1631.293775235762
 31
0.0
  0
LINE
  5
382
  8
ZUWAKU
 62
     6
 10
1920.167847801015
 20
-1631.293775235762
 30
0.0
 11
1921.980419416387
 21
-1631.950249137967
 31
0.0
  0
LINE
  5
383
  8
ZUWAKU
 62
     6
 10
1921.980419416387
 20
-1631.950249137967
 30
0.0
 11
1923.726802714758
 21
-1632.71208332936
 31
0.0
  0
LINE
  5
384
  8
ZUWAKU
 62
     6
 10
1923.726802714758
 20
-1632.71208332936
 30
0.0
 11
1925.393495863859
 21
-1633.573247138919
 31
0.0
  0
LINE
  5
385
  8
ZUWAKU
 62
     6
 10
1925.393495863859
 20
-1633.573247138919
 30
0.0
 11
1926.967635602814
 21
-1634.526898666777
 31
0.0
  0
LINE
  5
386
  8
ZUWAKU
 62
     6
 10
1926.967635602814
 20
-1634.526898666777
 30
0.0
 11
1928.437106811451
 21
-1635.565435729822
 31
0.0
  0
LINE
  5
387
  8
ZUWAKU
 62
     6
 10
1928.437106811451
 20
-1635.565435729822
 30
0.0
 11
1929.790650328519
 21
-1636.680555043909
 31
0.0
  0
LINE
  5
388
  8
ZUWAKU
 62
     6
 10
1929.790650328519
 20
-1636.680555043909
 30
0.0
 11
1929.911808324818
 21
-1636.797314998356
 31
0.0
  0
LINE
  5
389
  8
ZUWAKU
 62
     6
 10
1902.974460080835
 20
-1633.600268837315
 30
0.0
 11
1904.128736933038
 21
-1633.32846304762
 31
0.0
  0
LINE
  5
38A
  8
ZUWAKU
 62
     6
 10
1904.128736933038
 20
-1633.32846304762
 30
0.0
 11
1905.998837097614
 21
-1633.025288724403
 31
0.0
  0
LINE
  5
38B
  8
ZUWAKU
 62
     6
 10
1905.998837097614
 20
-1633.025288724403
 30
0.0
 11
1907.918628009295
 21
-1632.846351888354
 31
0.0
  0
LINE
  5
38C
  8
ZUWAKU
 62
     6
 10
1907.918628009295
 20
-1632.846351888354
 30
0.0
 11
1909.873772463966
 21
-1632.792814348554
 31
0.0
  0
LINE
  5
38D
  8
ZUWAKU
 62
     6
 10
1909.873772463966
 20
-1632.792814348554
 30
0.0
 11
1911.849673236236
 21
-1632.864946813482
 31
0.0
  0
LINE
  5
38E
  8
ZUWAKU
 62
     6
 10
1911.849673236236
 20
-1632.864946813482
 30
0.0
 11
1913.831577082588
 21
-1633.062121816468
 31
0.0
  0
LINE
  5
38F
  8
ZUWAKU
 62
     6
 10
1913.831577082588
 20
-1633.062121816468
 30
0.0
 11
1915.804682125333
 21
-1633.382814506905
 31
0.0
  0
LINE
  5
390
  8
ZUWAKU
 62
     6
 10
1915.804682125333
 20
-1633.382814506905
 30
0.0
 11
1917.754246860628
 21
-1633.824611580557
 31
0.0
  0
LINE
  5
391
  8
ZUWAKU
 62
     6
 10
1917.754246860628
 20
-1633.824611580557
 30
0.0
 11
1918.764012500215
 21
-1634.120241130723
 31
0.0
  0
LINE
  5
392
  8
ZUWAKU
 62
     6
 10
1932.192890812667
 20
-1639.217167098585
 30
0.0
 11
1933.058153252927
 21
-1640.393407669776
 31
0.0
  0
LINE
  5
393
  8
ZUWAKU
 62
     6
 10
1933.058153252927
 20
-1640.393407669776
 30
0.0
 11
1933.732729894357
 21
-1641.515320798372
 31
0.0
  0
ARC
  5
394
  8
ZUWAKU
 62
     6
 10
1929.995759042281
 20
-1645.402462450583
 30
0.0
 40
1.95241000610128
 50
114.8999999999998
 51
224.9999999999999
  0
LINE
  5
395
  8
ZUWAKU
 62
     6
 10
1928.615196687306
 20
-1646.78302480555
 30
0.0
 11
1934.428379028998
 21
-1652.473920689999
 31
0.0
  0
LINE
  5
396
  8
ZUWAKU
 62
     6
 10
1934.428379028998
 20
-1652.473920689999
 30
0.0
 11
1933.770227533885
 21
-1653.690768762085
 31
0.0
  0
LINE
  5
397
  8
ZUWAKU
 62
     6
 10
1933.770227533885
 20
-1653.690768762085
 30
0.0
 11
1933.371780943026
 21
-1654.259131818421
 31
0.0
  0
LINE
  5
398
  8
ZUWAKU
 62
     6
 10
1892.543863274438
 20
-1638.586762600072
 30
0.0
 11
1892.907767122667
 21
-1637.913945324071
 31
0.0
  0
LINE
  5
399
  8
ZUWAKU
 62
     6
 10
1928.079220307059
 20
-1645.02992505875
 30
0.0
 11
1927.513890038805
 21
-1647.938297160635
 31
0.0
  0
ARC
  5
39A
  8
ZUWAKU
 62
     6
 10
1929.430428774027
 20
-1648.310834552452
 30
0.0
 40
1.95241000610128
 50
169.0
 51
224.9999999999982
  0
LINE
  5
39B
  8
ZUWAKU
 62
     6
 10
1928.04986641906
 20
-1649.691396907435
 30
0.0
 11
1929.782011173156
 21
-1651.423541661531
 31
0.0
  0
ARC
  5
39C
  8
ZUWAKU
 62
     6
 10
1929.28500872537
 20
-1651.920544109317
 30
0.0
 40
0.7028676021964606
 50
248.9511701848126
 51
404.9999999999982
  0
LINE
  5
39D
  8
ZUWAKU
 62
     6
 10
1891.715358331953
 20
-1635.53020824995
 30
0.0
 11
1878.632248843052
 21
-1635.096196808395
 31
0.0
  0
ARC
  5
39E
  8
ZUWAKU
 62
     6
 10
1878.619302342639
 20
-1635.486464128829
 30
0.0
 40
0.3904820012202562
 50
88.10000000000002
 51
168.999999999998
  0
LINE
  5
39F
  8
ZUWAKU
 62
     6
 10
1878.235994595594
 20
-1635.411956650475
 30
0.0
 11
1877.658509820451
 21
-1638.382858269616
 31
0.0
  0
ARC
  5
3A0
  8
ZUWAKU
 62
     6
 10
1878.041817567495
 20
-1638.457365747986
 30
0.0
 40
0.3904820012202562
 50
168.999999999998
 51
249.0000000000001
  0
LINE
  5
3A1
  8
ZUWAKU
 62
     6
 10
1877.901881333379
 20
-1638.821912101229
 30
0.0
 11
1888.691022920396
 21
-1642.96347552538
 31
0.0
  0
ARC
  5
3A2
  8
ZUWAKU
 62
     6
 10
1888.271214218055
 20
-1644.057114585109
 30
0.0
 40
1.171446003660768
 50
47.38928590658141
 51
69.00000000000026
  0
ARC
  5
3A3
  8
ZUWAKU
 62
     6
 10
1880.902491972318
 20
-1635.874762769679
 30
0.0
 40
0.7028676021964598
 50
88.10000000000034
 51
249.0000000000005
  0
LINE
  5
3A4
  8
ZUWAKU
 62
     6
 10
1889.534363685842
 20
-1639.941100988824
 30
0.0
 11
1880.650606750914
 21
-1636.530946205509
 31
0.0
  0
LINE
  5
3A5
  8
ZUWAKU
 62
     6
 10
1894.612956520075
 20
-1635.626331481791
 30
0.0
 11
1929.911808324818
 21
-1636.797314998356
 31
0.0
  0
ARC
  5
3A6
  8
ZUWAKU
 62
     6
 10
1903.242965013255
 20
-1634.740527948547
 30
0.0
 40
1.171446003660768
 50
103.2504547662727
 51
268.1000000000001
  0
ARC
  5
3A7
  8
ZUWAKU
 62
     6
 10
1918.434864135374
 20
-1635.244495147136
 30
0.0
 40
1.171446003660768
 50
268.1000000000001
 51
433.6815281605987
  0
ARC
  5
3A8
  8
ZUWAKU
 62
     6
 10
1933.440636505782
 20
-1635.742287885446
 30
0.0
 40
1.171446003660768
 50
226.0590228224415
 51
268.1000000000001
  0
LINE
  5
3A9
  8
ZUWAKU
 62
     6
 10
1932.951887810676
 20
-1636.898164821657
 30
0.0
 11
1947.309763938788
 21
-1637.374464627997
 31
0.0
  0
ARC
  5
3AA
  8
ZUWAKU
 62
     6
 10
1947.296817438375
 20
-1637.764731948447
 30
0.0
 40
0.3904820012202562
 50
348.9999999999998
 51
448.1000000000001
  0
LINE
  5
3AB
  8
ZUWAKU
 62
     6
 10
1947.680125185419
 20
-1637.8392394268
 30
0.0
 11
1947.203010537298
 21
-1640.293781505884
 31
0.0
  0
ARC
  5
3AC
  8
ZUWAKU
 62
     6
 10
1946.819702790254
 20
-1640.219274027514
 30
0.0
 40
0.3904820012202562
 50
294.9000000000004
 51
348.9999999999997
  0
LINE
  5
3AD
  8
ZUWAKU
 62
     6
 10
1946.984109697247
 20
-1640.573458389413
 30
0.0
 11
1938.288220548252
 21
-1644.60995574026
 31
0.0
  0
ARC
  5
3AE
  8
ZUWAKU
 62
     6
 10
1938.781441269216
 20
-1645.672508825956
 30
0.0
 40
1.171446003660768
 50
114.9000000000003
 51
186.4074391525502
  0
LINE
  5
3AF
  8
ZUWAKU
 62
     6
 10
1936.739747581746
 20
-1642.702506703944
 30
0.0
 11
1945.481372252773
 21
-1638.644779630583
 31
0.0
  0
ARC
  5
3B0
  8
ZUWAKU
 62
     6
 10
1945.185439820186
 20
-1638.007247779172
 30
0.0
 40
0.7028676021964606
 50
294.9000000000001
 51
448.0999999999976
  0
LINE
  5
3B1
  8
ZUWAKU
 62
     6
 10
1934.699954244168
 20
-1643.649347246915
 30
0.0
 11
1930.666934306619
 21
-1645.521412772939
 31
0.0
  0
LINE
  5
3B2
  8
ZUWAKU
 62
     6
 10
1933.732729894357
 20
-1641.515320798372
 30
0.0
 11
1929.17372450733
 21
-1643.631540641106
 31
0.0
  0
LINE
  5
3B3
  8
ZUWAKU
 62
     6
 10
1892.907767122667
 20
-1637.913945324071
 30
0.0
 11
1932.192890812667
 21
-1639.217167098585
 31
0.0
  0
LINE
  5
3B4
  8
ZUWAKU
 62
     6
 10
1906.322420936597
 20
-1641.435355770106
 30
0.0
 11
1927.71000832023
 21
-1642.144855116544
 31
0.0
  0
LINE
  5
3B5
  8
ZUWAKU
 62
     6
 10
1933.371780943026
 20
-1654.259131818421
 30
0.0
 11
1892.543863274438
 21
-1638.586762600072
 31
0.0
  0
LINE
  5
3B6
  8
ZUWAKU
 62
     6
 10
1931.766894845274
 20
-1656.152650809439
 30
0.0
 11
1891.732858011425
 21
-1640.785023891639
 31
0.0
  0
LINE
  5
3B7
  8
ZUWAKU
 62
     6
 10
1893.236065441603
 20
-1644.708153886987
 30
0.0
 11
1926.414501652388
 21
-1657.444162287015
 31
0.0
  0
LINE
  5
3B8
  8
ZUWAKU
 62
     6
 10
1944.149233125891
 20
-1660.905785145019
 30
0.0
 11
1934.028446571231
 21
-1657.020779180405
 31
0.0
  0
LINE
  5
3B9
  8
ZUWAKU
 62
     6
 10
1933.768984484466
 20
-1660.267283742546
 30
0.0
 11
1945.656362851844
 21
-1664.830420768635
 31
0.0
  0
ARC
  5
3BA
  8
ZUWAKU
 62
     6
 10
1892.816256739263
 20
-1645.8017929467
 30
0.0
 40
1.171446003660768
 50
69.00000000000046
 51
193.0320838540865
  0
ARC
  5
3BB
  8
ZUWAKU
 62
     6
 10
1906.283581435375
 20
-1642.606157731424
 30
0.0
 40
1.171446003660768
 50
88.10000000000002
 51
249.0000000000013
  0
ARC
  5
3BC
  8
ZUWAKU
 62
     6
 10
1925.994692950048
 20
-1658.537801346744
 30
0.0
 40
1.171446003660768
 50
291.9409771775833
 51
429.0000000000014
  0
ARC
  5
3BD
  8
ZUWAKU
 62
     6
 10
1927.671168819007
 20
-1643.315657077862
 30
0.0
 40
1.171446003660768
 50
318.0853946908567
 51
448.1000000000001
  0
ARC
  5
3BE
  8
ZUWAKU
 62
     6
 10
1933.349175782134
 20
-1661.360922802259
 30
0.0
 40
1.171446003660768
 50
68.99999999999984
 51
132.639760324211
  0
LINE
  5
3BF
  8
ZUWAKU
 62
     6
 10
1946.724842040579
 20
-1661.735389916964
 30
0.0
 11
1946.179606832996
 21
-1664.540381893762
 31
0.0
  0
ARC
  5
3C0
  8
ZUWAKU
 62
     6
 10
1945.796299085952
 20
-1664.465874415392
 30
0.0
 40
0.3904820012202562
 50
249.0000000000002
 51
348.9999999999995
  0
LINE
  5
3C1
  8
ZUWAKU
 62
     6
 10
1935.561296236904
 20
-1655.099607993906
 30
0.0
 11
1937.785616381622
 21
-1655.953444499858
 31
0.0
  0
LINE
  5
3C2
  8
ZUWAKU
 62
     7
 10
1885.841710527638
 20
-1602.961886862321
 30
0.0
 11
1886.465212193769
 21
-1599.754248861845
 31
0.0
  0
LINE
  5
3C3
  8
ZUWAKU
 62
     7
 10
1889.152064703996
 20
-1599.754248861845
 30
0.0
 11
1886.465212193769
 21
-1599.754248861845
 31
0.0
  0
LINE
  5
3C4
  8
ZUWAKU
 62
     7
 10
1889.152064703996
 20
-1599.754248861845
 30
0.0
 11
1888.575555160184
 21
-1602.720133350677
 31
0.0
  0
ARC
  5
3C5
  8
ZUWAKU
 62
     7
 10
1889.197412159799
 20
-1602.841010106499
 30
0.0
 40
0.6334961073825501
 50
169.0000000000074
 51
270.0000000000001
  0
LINE
  5
3C6
  8
ZUWAKU
 62
     7
 10
1889.197412159799
 20
-1603.474506213878
 30
0.0
 11
1895.373400320314
 21
-1603.474506213878
 31
0.0
  0
LINE
  5
3C7
  8
ZUWAKU
 62
     7
 10
1895.373400320314
 20
-1603.474506213878
 30
0.0
 11
1894.848324232925
 21
-1606.175788507967
 31
0.0
  0
LINE
  5
3C8
  8
ZUWAKU
 62
     7
 10
1888.426057734026
 20
-1606.175788507967
 30
0.0
 11
1894.848324232925
 21
-1606.175788507967
 31
0.0
  0
ARC
  5
3C9
  8
ZUWAKU
 62
     7
 10
1888.426057734026
 20
-1606.809284615346
 30
0.0
 40
0.6334961073825501
 50
89.99999999999812
 51
168.9999999999999
  0
LINE
  5
3CA
  8
ZUWAKU
 62
     7
 10
1887.804200734411
 20
-1606.688407859524
 30
0.0
 11
1885.734409519953
 21
-1617.3365605641
 31
0.0
  0
LINE
  5
3CB
  8
ZUWAKU
 62
     7
 10
1883.047557009734
 20
-1617.3365605641
 30
0.0
 11
1885.734409519953
 21
-1617.3365605641
 31
0.0
  0
LINE
  5
3CC
  8
ZUWAKU
 62
     7
 10
1883.047557009734
 20
-1617.3365605641
 30
0.0
 11
1885.070356101865
 21
-1606.930161371168
 31
0.0
  0
ARC
  5
3CD
  8
ZUWAKU
 62
     7
 10
1884.44849910225
 20
-1606.809284615346
 30
0.0
 40
0.6334961073825501
 50
349.0000000000003
 51
450.0000000000005
  0
LINE
  5
3CE
  8
ZUWAKU
 62
     7
 10
1884.44849910225
 20
-1606.175788507967
 30
0.0
 11
1878.272510941734
 21
-1606.175788507967
 31
0.0
  0
LINE
  5
3CF
  8
ZUWAKU
 62
     7
 10
1878.272510941734
 20
-1606.175788507967
 30
0.0
 11
1878.797587029124
 21
-1603.474506213878
 31
0.0
  0
LINE
  5
3D0
  8
ZUWAKU
 62
     7
 10
1878.797587029124
 20
-1603.474506213878
 30
0.0
 11
1885.219853528023
 21
-1603.474506213878
 31
0.0
  0
ARC
  5
3D1
  8
ZUWAKU
 62
     7
 10
1885.219853528023
 20
-1602.841010106499
 30
0.0
 40
0.6334961073825501
 50
270.0000000000001
 51
349.00000000001
  0
LINE
  5
3D2
  8
ZUWAKU
 62
     7
 10
1879.969129104912
 20
-1608.930883663555
 30
0.0
 11
1879.679706834007
 21
-1610.419832169647
 31
0.0
  0
ARC
  5
3D3
  8
ZUWAKU
 62
     7
 10
1875.892864854363
 20
-1609.683744654984
 30
0.0
 40
3.857719145820621
 50
285.6048457891953
 51
348.9999999999995
  0
ARC
  5
3D4
  8
ZUWAKU
 62
     7
 10
1876.960335773088
 20
-1613.505747849023
 30
0.0
 40
0.1105553630262355
 50
105.6048457891947
 51
168.9999999999997
  0
LINE
  5
3D5
  8
ZUWAKU
 62
     7
 10
1876.110403705347
 20
-1617.298865973856
 30
0.0
 11
1876.851811623463
 21
-1613.484652891272
 31
0.0
  0
ARC
  5
3D6
  8
ZUWAKU
 62
     7
 10
1874.524014466306
 20
-1609.916317068454
 30
0.0
 40
7.551070067114093
 50
282.127509556616
 51
348.9999999999988
  0
LINE
  5
3D7
  8
ZUWAKU
 62
     7
 10
1881.936350108307
 20
-1611.357129161976
 30
0.0
 11
1882.407964458334
 21
-1608.930883663555
 31
0.0
  0
LINE
  5
3D8
  8
ZUWAKU
 62
     7
 10
1882.407964458334
 20
-1608.930883663555
 30
0.0
 11
1879.969129104912
 21
-1608.930883663555
 31
0.0
  0
LINE
  5
3D9
  8
ZUWAKU
 62
     7
 10
1890.137832533834
 20
-1608.930883663555
 30
0.0
 11
1889.324044669485
 21
-1613.117459289245
 31
0.0
  0
ARC
  5
3DA
  8
ZUWAKU
 62
     7
 10
1892.597553799138
 20
-1613.753765005836
 30
0.0
 40
3.334778401464306
 50
168.9999999999999
 51
269.9999999999885
  0
LINE
  5
3DB
  8
ZUWAKU
 62
     7
 10
1892.597553799138
 20
-1617.088543407287
 30
0.0
 11
1892.727099562045
 21
-1617.088543407287
 31
0.0
  0
LINE
  5
3DC
  8
ZUWAKU
 62
     7
 10
1892.727099562045
 20
-1617.088543407287
 30
0.0
 11
1893.445014255882
 21
-1613.395192485995
 31
0.0
  0
LINE
  5
3DD
  8
ZUWAKU
 62
     7
 10
1893.445014255882
 20
-1613.395192485995
 30
0.0
 11
1893.13197584107
 21
-1613.395192485995
 31
0.0
  0
ARC
  5
3DE
  8
ZUWAKU
 62
     7
 10
1893.13197584107
 20
-1612.017644908209
 30
0.0
 40
1.377547577791336
 50
168.9999999999997
 51
269.9999999999974
  0
LINE
  5
3DF
  8
ZUWAKU
 62
     7
 10
1891.779737692216
 20
-1611.754796438815
 30
0.0
 11
1892.328650730451
 21
-1608.930883663555
 31
0.0
  0
LINE
  5
3E0
  8
ZUWAKU
 62
     7
 10
1892.328650730451
 20
-1608.930883663555
 30
0.0
 11
1890.137832533834
 21
-1608.930883663555
 31
0.0
  0
LINE
  5
3E1
  8
ZUWAKU
 62
     7
 10
1903.481976709953
 20
-1600.250283175438
 30
0.0
 11
1903.243815324124
 21
-1601.475517289343
 31
0.0
  0
ARC
  5
3E2
  8
ZUWAKU
 62
     7
 10
1897.509290279851
 20
-1600.360838538466
 30
0.0
 40
5.841856400244049
 50
271.0152301125743
 51
349.000000000001
  0
LINE
  5
3E3
  8
ZUWAKU
 62
     7
 10
1896.898686996745
 20
-1609.875557166682
 30
0.0
 11
1897.612797348591
 21
-1606.201777888254
 31
0.0
  0
ARC
  5
3E4
  8
ZUWAKU
 62
     7
 10
1896.273940575592
 20
-1600.360838538466
 30
0.0
 40
9.535207321537518
 50
273.7567084122492
 51
341.5139853209125
  0
ARC
  5
3E5
  8
ZUWAKU
 62
     7
 10
1905.917949867568
 20
-1603.585061576906
 30
0.0
 40
0.6334961073825501
 50
89.9999999999993
 51
161.5139853209126
  0
LINE
  5
3E6
  8
ZUWAKU
 62
     7
 10
1905.917949867568
 20
-1602.951565469527
 30
0.0
 11
1910.372974567087
 21
-1602.951565469527
 31
0.0
  0
ARC
  5
3E7
  8
ZUWAKU
 62
     7
 10
1910.372974567087
 20
-1603.585061576906
 30
0.0
 40
0.6334961073825501
 50
346.2586933201409
 51
450.0000000000038
  0
ARC
  5
3E8
  8
ZUWAKU
 62
     7
 10
1898.567971006965
 20
-1600.698293900038
 30
0.0
 40
12.78633679072605
 50
277.267166461819
 51
346.258693320142
  0
LINE
  5
3E9
  8
ZUWAKU
 62
     7
 10
1899.465649269116
 20
-1617.084683660482
 30
0.0
 11
1900.185393758739
 21
-1613.381919255894
 31
0.0
  0
ARC
  5
3EA
  8
ZUWAKU
 62
     7
 10
1899.131159490811
 20
-1602.592992949702
 30
0.0
 40
14.49555045759609
 50
271.3222370437007
 51
349.0000000000002
  0
LINE
  5
3EB
  8
ZUWAKU
 62
     7
 10
1913.36038585903
 20
-1605.358874369943
 30
0.0
 11
1914.35339539467
 21
-1600.250283175438
 31
0.0
  0
LINE
  5
3EC
  8
ZUWAKU
 62
     7
 10
1903.481976709953
 20
-1600.250283175438
 30
0.0
 11
1914.35339539467
 21
-1600.250283175438
 31
0.0
  0
LINE
  5
3ED
  8
ZUWAKU
 62
     7
 10
1932.458647841285
 20
-1600.250283175438
 30
0.0
 11
1917.122920334111
 21
-1600.250283175438
 31
0.0
  0
LINE
  5
3EE
  8
ZUWAKU
 62
     7
 10
1916.597844246721
 20
-1602.951565469527
 30
0.0
 11
1922.029780936822
 21
-1602.951565469527
 31
0.0
  0
LINE
  5
3EF
  8
ZUWAKU
 62
     7
 10
1926.007339568606
 20
-1602.951565469527
 30
0.0
 11
1931.933571753895
 21
-1602.951565469527
 31
0.0
  0
LINE
  5
3F0
  8
ZUWAKU
 62
     7
 10
1920.05318522078
 20
-1614.387261113215
 30
0.0
 11
1914.12695303549
 21
-1614.387261113215
 31
0.0
  0
LINE
  5
3F1
  8
ZUWAKU
 62
     7
 10
1929.710697699469
 20
-1614.387261113215
 30
0.0
 11
1924.030743852563
 21
-1614.387261113215
 31
0.0
  0
LINE
  5
3F2
  8
ZUWAKU
 62
     7
 10
1913.601876948101
 20
-1617.088543407287
 30
0.0
 11
1929.18562161208
 21
-1617.088543407287
 31
0.0
  0
LINE
  5
3F3
  8
ZUWAKU
 62
     7
 10
1917.122920334111
 20
-1600.250283175438
 30
0.0
 11
1916.597844246721
 21
-1602.951565469527
 31
0.0
  0
ARC
  5
3F4
  8
ZUWAKU
 62
     7
 10
1922.029780936822
 20
-1603.585061576906
 30
0.0
 40
0.6334961073825501
 50
348.9999999999997
 51
450.0000000000051
  0
LINE
  5
3F5
  8
ZUWAKU
 62
     7
 10
1922.651637936437
 20
-1603.705938332728
 30
0.0
 11
1920.675042220394
 21
-1613.874641761658
 31
0.0
  0
ARC
  5
3F6
  8
ZUWAKU
 62
     7
 10
1920.05318522078
 20
-1613.753765005836
 30
0.0
 40
0.6334961073825501
 50
269.9999999999994
 51
348.9999999999999
  0
LINE
  5
3F7
  8
ZUWAKU
 62
     7
 10
1914.12695303549
 20
-1614.387261113215
 30
0.0
 11
1913.601876948101
 21
-1617.088543407287
 31
0.0
  0
LINE
  5
3F8
  8
ZUWAKU
 62
     7
 10
1929.18562161208
 20
-1617.088543407287
 30
0.0
 11
1929.710697699469
 21
-1614.387261113215
 31
0.0
  0
ARC
  5
3F9
  8
ZUWAKU
 62
     7
 10
1924.030743852563
 20
-1613.753765005836
 30
0.0
 40
0.6334961073825501
 50
169.0000000000001
 51
270.0000000000013
  0
LINE
  5
3FA
  8
ZUWAKU
 62
     7
 10
1923.408886852949
 20
-1613.632888249997
 30
0.0
 11
1925.385482568991
 21
-1603.464184821084
 31
0.0
  0
ARC
  5
3FB
  8
ZUWAKU
 62
     7
 10
1926.007339568606
 20
-1603.585061576906
 30
0.0
 40
0.6334961073825501
 50
90.00000000000003
 51
168.9999999999998
  0
LINE
  5
3FC
  8
ZUWAKU
 62
     7
 10
1931.933571753895
 20
-1602.951565469527
 30
0.0
 11
1932.458647841285
 21
-1600.250283175438
 31
0.0
  0
LINE
  5
3FD
  8
ZUWAKU
 62
     7
 10
1948.127319367448
 20
-1599.754248861845
 30
0.0
 11
1946.080464634865
 21
-1599.754248861845
 31
0.0
  0
ARC
  5
3FE
  8
ZUWAKU
 62
     7
 10
1946.080464634865
 20
-1599.864804224872
 30
0.0
 40
0.1105553630262355
 50
90.00000000000003
 51
151.0614722598196
  0
ARC
  5
3FF
  8
ZUWAKU
 62
     7
 10
1932.623391043551
 20
-1592.424289520773
 30
0.0
 40
15.26650835875534
 50
269.999999999989
 51
331.0614722598194
  0
LINE
  5
400
  8
ZUWAKU
 62
     7
 10
1932.623391043551
 20
-1607.690797879538
 30
0.0
 11
1931.888880786364
 21
-1607.690797879538
 31
0.0
  0
LINE
  5
401
  8
ZUWAKU
 62
     7
 10
1930.98730973273
 20
-1611.86013091973
 30
0.0
 11
1931.780356636748
 21
-1607.780258284799
 31
0.0
  0
ARC
  5
402
  8
ZUWAKU
 62
     7
 10
1931.888880786364
 20
-1607.801353242566
 30
0.0
 40
0.1105553630262355
 50
89.99999999998872
 51
168.9999999999997
  0
ARC
  5
403
  8
ZUWAKU
 62
     7
 10
1928.44367652134
 20
-1590.072040483342
 30
0.0
 40
21.93606516168395
 50
276.6588077484425
 51
292.9187661784221
  0
ARC
  5
404
  8
ZUWAKU
 62
     7
 10
1937.232842511888
 20
-1610.859913319907
 30
0.0
 40
0.6334961073825501
 50
349.0000000000001
 51
472.9187661783919
  0
LINE
  5
405
  8
ZUWAKU
 62
     7
 10
1937.854699511502
 20
-1610.980790075729
 30
0.0
 11
1936.619262879164
 21
-1617.3365605641
 31
0.0
  0
LINE
  5
406
  8
ZUWAKU
 62
     7
 10
1936.619262879164
 20
-1617.3365605641
 30
0.0
 11
1939.306115389383
 21
-1617.3365605641
 31
0.0
  0
LINE
  5
407
  8
ZUWAKU
 62
     7
 10
1939.306115389383
 20
-1617.3365605641
 30
0.0
 11
1941.060198596359
 21
-1608.312584757329
 31
0.0
  0
ARC
  5
408
  8
ZUWAKU
 62
     7
 10
1941.925515979053
 20
-1608.48078541767
 30
0.0
 40
0.8815132641854786
 50
126.2175779738571
 51
169.0
  0
ARC
  5
409
  8
ZUWAKU
 62
     7
 10
1928.44367652134
 20
-1590.072040483342
 30
0.0
 40
21.93606516168395
 50
306.2175779738571
 51
333.8078384872959
  0
LINE
  5
40A
  8
ZUWAKU
 62
     2
 10
2129.429446393598
 20
-1609.258944092554
 30
0.0
 11
2132.218039257108
 21
-1594.912877477681
 31
0.0
  0
LINE
  5
40B
  8
ZUWAKU
 62
     2
 10
2144.234908084005
 20
-1594.912877477681
 30
0.0
 11
2132.218039257108
 21
-1594.912877477681
 31
0.0
  0
LINE
  5
40C
  8
ZUWAKU
 62
     2
 10
2144.234908084005
 20
-1594.912877477681
 30
0.0
 11
2141.656486105492
 21
-1608.177708622104
 31
0.0
  0
ARC
  5
40D
  8
ZUWAKU
 62
     2
 10
2144.437723246355
 20
-1608.718326357329
 30
0.0
 40
2.833292708030003
 50
169.0000000000074
 51
270.0000000000001
  0
LINE
  5
40E
  8
ZUWAKU
 62
     2
 10
2144.437723246355
 20
-1611.551619065353
 30
0.0
 11
2172.05964864753
 21
-1611.551619065353
 31
0.0
  0
LINE
  5
40F
  8
ZUWAKU
 62
     2
 10
2172.05964864753
 20
-1611.551619065353
 30
0.0
 11
2169.711261290087
 21
-1623.633024676164
 31
0.0
  0
LINE
  5
410
  8
ZUWAKU
 62
     2
 10
2140.987863263978
 20
-1623.633024676164
 30
0.0
 11
2169.711261290087
 21
-1623.633024676164
 31
0.0
  0
ARC
  5
411
  8
ZUWAKU
 62
     2
 10
2140.987863263978
 20
-1626.466317384188
 30
0.0
 40
2.833292708030003
 50
89.99999999999812
 51
168.9999999999999
  0
LINE
  5
412
  8
ZUWAKU
 62
     2
 10
2138.206626123114
 20
-1625.925699648963
 30
0.0
 11
2128.949545792648
 21
-1673.549249439214
 31
0.0
  0
LINE
  5
413
  8
ZUWAKU
 62
     2
 10
2116.932676965751
 20
-1673.549249439214
 30
0.0
 11
2128.949545792648
 21
-1673.549249439214
 31
0.0
  0
LINE
  5
414
  8
ZUWAKU
 62
     2
 10
2116.932676965751
 20
-1673.549249439214
 30
0.0
 11
2125.979586411221
 21
-1627.006935119413
 31
0.0
  0
ARC
  5
415
  8
ZUWAKU
 62
     2
 10
2123.198349270357
 20
-1626.466317384188
 30
0.0
 40
2.833292708030003
 50
349.0000000000003
 51
450.0000000000005
  0
LINE
  5
416
  8
ZUWAKU
 62
     2
 10
2123.198349270357
 20
-1623.633024676164
 30
0.0
 11
2095.576423869174
 21
-1623.633024676164
 31
0.0
  0
LINE
  5
417
  8
ZUWAKU
 62
     2
 10
2095.576423869174
 20
-1623.633024676164
 30
0.0
 11
2097.924811226626
 21
-1611.551619065353
 31
0.0
  0
LINE
  5
418
  8
ZUWAKU
 62
     2
 10
2097.924811226626
 20
-1611.551619065353
 30
0.0
 11
2126.648209252726
 21
-1611.551619065353
 31
0.0
  0
ARC
  5
419
  8
ZUWAKU
 62
     2
 10
2126.648209252726
 20
-1608.718326357329
 30
0.0
 40
2.833292708030003
 50
270.0000000000001
 51
349.00000000001
  0
LINE
  5
41A
  8
ZUWAKU
 62
     2
 10
2103.16449870347
 20
-1635.955106727285
 30
0.0
 11
2101.87006610926
 21
-1642.614385128208
 31
0.0
  0
ARC
  5
41B
  8
ZUWAKU
 62
     2
 10
2084.933526733007
 20
-1639.322255368527
 30
0.0
 40
17.25353541735491
 50
285.6048457891953
 51
348.9999999999995
  0
ARC
  5
41C
  8
ZUWAKU
 62
     2
 10
2089.707759020772
 20
-1656.416052242022
 30
0.0
 40
0.4944556095065139
 50
105.6048457891947
 51
168.9999999999997
  0
LINE
  5
41D
  8
ZUWAKU
 62
     2
 10
2085.906462845842
 20
-1673.380661493037
 30
0.0
 11
2089.222387953471
 21
-1656.321705663916
 31
0.0
  0
ARC
  5
41E
  8
ZUWAKU
 62
     2
 10
2078.811383632727
 20
-1640.362428647403
 30
0.0
 40
33.77193878487169
 50
282.127509556616
 51
348.9999999999988
  0
LINE
  5
41F
  8
ZUWAKU
 62
     2
 10
2111.962836781687
 20
-1646.806418358866
 30
0.0
 11
2114.07211809118
 21
-1635.955106727285
 31
0.0
  0
LINE
  5
420
  8
ZUWAKU
 62
     2
 10
2114.07211809118
 20
-1635.955106727285
 30
0.0
 11
2103.16449870347
 21
-1635.955106727285
 31
0.0
  0
LINE
  5
421
  8
ZUWAKU
 62
     2
 10
2148.643725709797
 20
-1635.955106727285
 30
0.0
 11
2145.004083421423
 21
-1654.679443078631
 31
0.0
  0
ARC
  5
422
  8
ZUWAKU
 62
     2
 10
2159.644756724114
 20
-1657.525301681192
 30
0.0
 40
14.91469831883142
 50
168.9999999999999
 51
269.9999999999885
  0
LINE
  5
423
  8
ZUWAKU
 62
     2
 10
2159.644756724106
 20
-1672.440000000027
 30
0.0
 11
2160.224146338559
 21
-1672.440000000027
 31
0.0
  0
LINE
  5
424
  8
ZUWAKU
 62
     2
 10
2160.224146338559
 20
-1672.440000000027
 30
0.0
 11
2163.434998691599
 21
-1655.921596632518
 31
0.0
  0
LINE
  5
425
  8
ZUWAKU
 62
     2
 10
2163.434998691599
 20
-1655.921596632518
 30
0.0
 11
2162.034943588374
 21
-1655.921596632518
 31
0.0
  0
ARC
  5
426
  8
ZUWAKU
 62
     2
 10
2162.034943588374
 20
-1649.760555606949
 30
0.0
 40
6.16104102556652
 50
168.9999999999997
 51
269.9999999999974
  0
LINE
  5
427
  8
ZUWAKU
 62
     2
 10
2155.987098239345
 20
-1648.584973558377
 30
0.0
 11
2158.442095658337
 21
-1635.955106727285
 31
0.0
  0
LINE
  5
428
  8
ZUWAKU
 62
     2
 10
2158.442095658337
 20
-1635.955106727285
 30
0.0
 11
2148.643725709797
 21
-1635.955106727285
 31
0.0
  0
LINE
  5
429
  8
ZUWAKU
 62
     2
 10
2208.325018062649
 20
-1597.131376356038
 30
0.0
 11
2207.259848269294
 21
-1602.611199894115
 31
0.0
  0
ARC
  5
42A
  8
ZUWAKU
 62
     2
 10
2181.612353671267
 20
-1597.625831965542
 30
0.0
 40
26.12753093078563
 50
271.0152301125743
 51
349.000000000001
  0
LINE
  5
42B
  8
ZUWAKU
 62
     2
 10
2178.8814484465
 20
-1640.180131185535
 30
0.0
 11
2182.075285991875
 21
-1623.749261415092
 31
0.0
  0
ARC
  5
42C
  8
ZUWAKU
 62
     2
 10
2176.08728845279
 20
-1597.625831965542
 30
0.0
 40
42.64593429830241
 50
273.7567084122492
 51
341.5139853209125
  0
ARC
  5
42D
  8
ZUWAKU
 62
     2
 10
2219.219836363819
 20
-1612.046074674873
 30
0.0
 40
2.833292708030003
 50
89.9999999999993
 51
161.5139853209126
  0
LINE
  5
42E
  8
ZUWAKU
 62
     2
 10
2219.219836363819
 20
-1609.212781966832
 30
0.0
 11
2239.144803302274
 21
-1609.212781966832
 31
0.0
  0
ARC
  5
42F
  8
ZUWAKU
 62
     2
 10
2239.144803302274
 20
-1612.046074674873
 30
0.0
 40
2.833292708030003
 50
346.2586933201409
 51
450.0000000000038
  0
ARC
  5
430
  8
ZUWAKU
 62
     2
 10
2186.347272085621
 20
-1599.135091144969
 30
0.0
 40
57.18651522779312
 50
277.267166461819
 51
346.258693320142
  0
LINE
  5
431
  8
ZUWAKU
 62
     2
 10
2190.362111710782
 20
-1672.422737395925
 30
0.0
 11
2193.581147771678
 21
-1655.862232501263
 31
0.0
  0
ARC
  5
432
  8
ZUWAKU
 62
     2
 10
2188.866116015267
 20
-1607.609076918142
 30
0.0
 40
64.83092308187916
 50
271.3222370437007
 51
349.0000000000002
  0
LINE
  5
433
  8
ZUWAKU
 62
     2
 10
2252.505912440442
 20
-1619.97940022073
 30
0.0
 11
2256.947118382443
 21
-1597.131376356038
 31
0.0
  0
LINE
  5
434
  8
ZUWAKU
 62
     2
 10
2208.325018062649
 20
-1597.131376356038
 30
0.0
 11
2256.947118382443
 21
-1597.131376356038
 31
0.0
  0
LINE
  5
435
  8
ZUWAKU
 62
     2
 10
2337.922327442505
 20
-1597.131376356038
 30
0.0
 11
2269.333737217486
 21
-1597.131376356038
 31
0.0
  0
LINE
  5
436
  8
ZUWAKU
 62
     2
 10
2266.985349860043
 20
-1609.212781966832
 30
0.0
 11
2291.279526943682
 21
-1609.212781966832
 31
0.0
  0
LINE
  5
437
  8
ZUWAKU
 62
     2
 10
2309.069040937311
 20
-1609.212781966832
 30
0.0
 11
2335.573940085054
 21
-1609.212781966832
 31
0.0
  0
LINE
  5
438
  8
ZUWAKU
 62
     2
 10
2282.439260738843
 20
-1660.358594389233
 30
0.0
 11
2255.9343615911
 21
-1660.358594389233
 31
0.0
  0
LINE
  5
439
  8
ZUWAKU
 62
     2
 10
2325.63220125529
 20
-1660.358594389233
 30
0.0
 11
2300.228774732472
 21
-1660.358594389233
 31
0.0
  0
LINE
  5
43A
  8
ZUWAKU
 62
     2
 10
2253.585974233648
 20
-1672.440000000027
 30
0.0
 11
2323.283813897846
 21
-1672.440000000027
 31
0.0
  0
LINE
  5
43B
  8
ZUWAKU
 62
     2
 10
2269.333737217486
 20
-1597.131376356038
 30
0.0
 11
2266.985349860043
 21
-1609.212781966832
 31
0.0
  0
ARC
  5
43C
  8
ZUWAKU
 62
     2
 10
2291.279526943682
 20
-1612.046074674857
 30
0.0
 40
2.833292708030003
 50
348.9999999999997
 51
450.0000000000051
  0
LINE
  5
43D
  8
ZUWAKU
 62
     2
 10
2294.060764084545
 20
-1612.586692410098
 30
0.0
 11
2285.220497879715
 21
-1658.065919416417
 31
0.0
  0
ARC
  5
43E
  8
ZUWAKU
 62
     2
 10
2282.439260738843
 20
-1657.525301681192
 30
0.0
 40
2.833292708030003
 50
269.9999999999994
 51
348.9999999999999
  0
LINE
  5
43F
  8
ZUWAKU
 62
     2
 10
2255.9343615911
 20
-1660.358594389233
 30
0.0
 11
2253.585974233648
 21
-1672.440000000027
 31
0.0
  0
LINE
  5
440
  8
ZUWAKU
 62
     2
 10
2323.283813897846
 20
-1672.440000000027
 30
0.0
 11
2325.63220125529
 21
-1660.358594389233
 31
0.0
  0
ARC
  5
441
  8
ZUWAKU
 62
     2
 10
2300.228774732472
 20
-1657.525301681192
 30
0.0
 40
2.833292708030003
 50
169.0000000000001
 51
270.0000000000013
  0
LINE
  5
442
  8
ZUWAKU
 62
     2
 10
2297.447537591609
 20
-1656.984683945967
 30
0.0
 11
2306.287803796439
 21
-1611.505456939632
 31
0.0
  0
ARC
  5
443
  8
ZUWAKU
 62
     2
 10
2309.069040937311
 20
-1612.046074674873
 30
0.0
 40
2.833292708030003
 50
90.00000000000003
 51
168.9999999999998
  0
LINE
  5
444
  8
ZUWAKU
 62
     2
 10
2335.573940085054
 20
-1609.212781966832
 30
0.0
 11
2337.922327442505
 21
-1597.131376356038
 31
0.0
  0
LINE
  5
445
  8
ZUWAKU
 62
     2
 10
2407.999999999983
 20
-1594.912877477681
 30
0.0
 11
2398.845502410117
 21
-1594.912877477681
 31
0.0
  0
ARC
  5
446
  8
ZUWAKU
 62
     2
 10
2398.845502410117
 20
-1595.407333087184
 30
0.0
 40
0.4944556095065139
 50
90.00000000000003
 51
151.0614722598196
  0
ARC
  5
447
  8
ZUWAKU
 62
     2
 10
2338.659136569258
 20
-1562.129849911823
 30
0.0
 40
68.2790096195815
 50
269.999999999989
 51
331.0614722598194
  0
LINE
  5
448
  8
ZUWAKU
 62
     2
 10
2338.659136569242
 20
-1630.4088595314
 30
0.0
 11
2335.374061047248
 21
-1630.4088595314
 31
0.0
  0
LINE
  5
449
  8
ZUWAKU
 62
     2
 10
2331.34181102664
 20
-1649.056078926199
 30
0.0
 11
2334.888689979947
 21
-1630.808968562797
 31
0.0
  0
ARC
  5
44A
  8
ZUWAKU
 62
     2
 10
2335.374061047248
 20
-1630.903315140903
 30
0.0
 40
0.4944556095065139
 50
89.99999999998872
 51
168.9999999999997
  0
ARC
  5
44B
  8
ZUWAKU
 62
     2
 10
2319.965486301429
 20
-1551.609485275719
 30
0.0
 40
98.10840625724433
 50
276.6588077484425
 51
292.9187661784221
  0
ARC
  5
44C
  8
ZUWAKU
 62
     2
 10
2359.274772689274
 20
-1644.582635129184
 30
0.0
 40
2.833292708030003
 50
349.0000000000001
 51
472.9187661783919
  0
LINE
  5
44D
  8
ZUWAKU
 62
     2
 10
2362.056009830145
 20
-1645.12325286441
 30
0.0
 11
2356.530555828386
 21
-1673.549249439214
 31
0.0
  0
LINE
  5
44E
  8
ZUWAKU
 62
     2
 10
2356.530555828386
 20
-1673.549249439214
 30
0.0
 11
2368.547424655283
 21
-1673.549249439214
 31
0.0
  0
LINE
  5
44F
  8
ZUWAKU
 62
     2
 10
2368.547424655283
 20
-1673.549249439214
 30
0.0
 11
2376.392510207774
 21
-1633.189783054483
 31
0.0
  0
ARC
  5
450
  8
ZUWAKU
 62
     2
 10
2380.262616751368
 20
-1633.942055560824
 30
0.0
 40
3.942542147208842
 50
126.2175779738571
 51
169.0
  0
ARC
  5
451
  8
ZUWAKU
 62
     2
 10
2319.965486301429
 20
-1551.609485275719
 30
0.0
 40
98.10840625724433
 50
306.2175779738571
 51
333.8078384872959
  0
LINE
  5
452
  8
ZUWAKU
 62
     5
 10
-2268.000000000013
 20
1666.999999999972
 30
0.0
 11
2425.999999999986
 21
1666.999999999974
 31
0.0
  0
LINE
  5
453
  8
ZUWAKU
 62
     5
 10
2425.999999999986
 20
1666.999999999974
 30
0.0
 11
2425.999999999986
 21
-1698.000000000026
 31
0.0
  0
LINE
  5
454
  8
ZUWAKU
 62
     5
 10
2425.999999999986
 20
-1698.000000000026
 30
0.0
 11
-2268.000000000013
 21
-1698.000000000027
 31
0.0
  0
LINE
  5
455
  8
ZUWAKU
 62
     5
 10
-2268.000000000013
 20
-1698.000000000027
 30
0.0
 11
-2268.000000000013
 21
1666.999999999972
 31
0.0
  0
ENDBLK
  5
74
  8
0
  0
BLOCK
  8
0
  2
DC_GROUP_3
 70
     0
 10
0.0
 20
0.0
 30
0.0
  3
DC_GROUP_3
  1

  0
TEXT
  5
456
  8
ZUWAKU
 62
     4
 10
1389.861560869648
 20
-910.2667419434661
 30
0.0
 40
42.0
  1
※　タンク高さを高い位置にした場合のみ脚取り付け用で使用
 41
0.6666666666666666
  7
FDASTYLE0
 72
     5
 11
2330.661560869648
 21
-910.2667419434661
 31
0.0
  0
LINE
  5
457
  8
ZUWAKU
 62
     6
 10
1385.661560869648
 20
-914.4667419434661
 30
0.0
 11
2334.861560869648
 21
-914.4667419434661
 31
0.0
  0
ENDBLK
  5
77
  8
0
  0
BLOCK
  8
0
  2
DC_GROUP_4
 70
     0
 10
0.0
 20
0.0
 30
0.0
  3
DC_GROUP_4
  1

  0
LINE
  5
458
  8
LAYER0016
 62
     3
 10
1963.987886811145
 20
-295.5178243249381
 30
0.0
 11
1992.883886811145
 21
-295.5178243249381
 31
0.0
  0
LINE
  5
459
  8
LAYER0016
 62
     3
 10
1963.987886811145
 20
-290.7178243249381
 30
0.0
 11
1963.987886811145
 21
-295.5178243249381
 31
0.0
  0
INSERT
  5
45A
  8
LAYER0016
  6
CONTINUOUS
  2
DC_GROUP_5
 10
0.0
 20
0.0
 30
0.0
  0
ENDBLK
  5
7A
  8
0
  0
BLOCK
  8
0
  2
DC_GROUP_5
 70
     0
 10
0.0
 20
0.0
 30
0.0
  3
DC_GROUP_5
  1

  0
LINE
  5
45B
  8
LAYER0016
 62
     3
 10
1836.787886810886
 20
-405.9178243245823
 30
0.0
 11
1992.883886811145
 21
-405.9178243245823
 31
0.0
  0
LINE
  5
45C
  8
LAYER0016
 62
     3
 10
2004.787886811145
 20
-302.6218243250364
 30
0.0
 11
2004.787886811145
 21
-394.0138243250365
 31
0.0
  0
LINE
  5
45D
  8
LAYER0016
 62
     3
 10
1963.987886811145
 20
-290.7178243249381
 30
0.0
 11
1992.883886811145
 21
-290.7178243249381
 31
0.0
  0
LINE
  5
45E
  8
LAYER0016
 62
     3
 10
1836.787886810899
 20
-401.1178243245823
 30
0.0
 11
1836.787886810886
 21
-405.9178243245823
 31
0.0
  0
LINE
  5
45F
  8
LAYER0016
 62
     3
 10
1836.787886810899
 20
-401.1178243245823
 30
0.0
 11
1992.883886811145
 21
-401.1178243245823
 31
0.0
  0
LINE
  5
460
  8
LAYER0016
 62
     3
 10
1999.987886811145
 20
-302.6218243250233
 30
0.0
 11
1999.987886811145
 21
-394.0138243250235
 31
0.0
  0
ARC
  5
461
  8
LAYER0016
 62
     3
 10
1992.883886811145
 20
-394.0138243250235
 30
0.0
 40
7.104000000000001
 50
270.0
 51
360.0
  0
ARC
  5
462
  8
LAYER0016
 62
     3
 10
1992.883886811145
 20
-302.6218243250364
 30
0.0
 40
11.904
 50
0.0
 51
90.0
  0
ARC
  5
463
  8
LAYER0016
 62
     3
 10
1992.883886811145
 20
-394.0138243250365
 30
0.0
 40
11.904
 50
270.0
 51
360.0
  0
ENDBLK
  5
7D
  8
0
  0
BLOCK
  8
0
  2
DC_GROUP_6
 70
     0
 10
0.0
 20
0.0
 30
0.0
  3
DC_GROUP_6
  1

  0
TEXT
  5
464
  8
LAYER0015
 62
     4
 10
1825.867484523623
 20
-72.21066767671005
 30
0.0
 40
52.5
  1
脚　断面形状
 41
0.6249999999999994
  7
FDASTYLE0
 72
     5
 11
2062.117484523623
 21
-72.21066767671005
 31
0.0
  0
LINE
  5
465
  8
LAYER0015
 62
     3
 10
1820.617484523623
 20
-77.46066767671005
 30
0.0
 11
2067.367484523623
 21
-77.46066767671005
 31
0.0
  0
LINE
  5
466
  8
LAYER0015
 62
     3
 10
2067.367484523623
 20
-77.46066767671005
 30
0.0
 11
2067.367484523623
 21
-14.46066767671005
 31
0.0
  0
LINE
  5
467
  8
LAYER0015
 62
     3
 10
1820.617484523623
 20
-14.46066767671005
 30
0.0
 11
2067.367484523623
 21
-14.46066767671005
 31
0.0
  0
LINE
  5
468
  8
LAYER0015
 62
     3
 10
1820.617484523623
 20
-77.46066767671005
 30
0.0
 11
1820.617484523623
 21
-14.46066767671005
 31
0.0
  0
ENDBLK
  5
80
  8
0
  0
BLOCK
  8
0
  2
DA_IMAGEDIMGROUP_11
 70
     0
 10
0.0
 20
0.0
 30
0.0
  3
DA_IMAGEDIMGROUP_11
  1

  0
LINE
  5
469
  8
LAYER0031
 62
     4
 10
2004.787886811145
 20
-406.0138243250365
 30
0.0
 11
2004.787886811145
 21
-536.7471882292227
 31
0.0
  0
LINE
  5
46A
  8
LAYER0031
 62
     4
 10
1836.787886810886
 20
-417.9178243245826
 30
0.0
 11
1836.787886810886
 21
-536.7471882292227
 31
0.0
  0
LINE
  5
46B
  8
LAYER0031
 62
     4
 10
1836.787886810886
 20
-524.7471882292227
 30
0.0
 11
2004.787886811145
 21
-524.7471882292227
 31
0.0
  0
INSERT
  5
46C
  8
LAYER0031
 62
     4
  2
_OPEN30
 10
1836.787886810886
 20
-524.7471882292227
 30
0.0
 41
36.00003345389238
 42
35.99987128774157
 50
180.0
  0
INSERT
  5
46D
  8
LAYER0031
 62
     4
  2
_OPEN30
 10
2004.787886811145
 20
-524.7471882292227
 30
0.0
 41
36.00003345389238
 42
35.99987128774157
 50
360.0
  0
TEXT
  5
46E
  8
LAYER0031
 62
     4
 10
1891.987886811015
 20
-512.7471882292227
 30
0.0
 40
36.0
  1
70
 41
0.7999999999999987
  7
FDASTYLE0
 72
     5
 11
1949.587886811015
 21
-512.7471882292227
 31
0.0
  0
ENDBLK
  5
83
  8
0
  0
BLOCK
  8
0
  2
DA_IMAGEDIMGROUP_12
 70
     0
 10
0.0
 20
0.0
 30
0.0
  3
DA_IMAGEDIMGROUP_12
  1

  0
LINE
  5
46F
  8
LAYER0031
 62
     4
 10
2004.883886811145
 20
-405.9178243245826
 30
0.0
 11
2181.829533694806
 21
-405.9178243245826
 31
0.0
  0
LINE
  5
470
  8
LAYER0031
 62
     4
 10
2004.883886811145
 20
-290.7178243249384
 30
0.0
 11
2181.829533694806
 21
-290.7178243249384
 31
0.0
  0
LINE
  5
471
  8
LAYER0031
 62
     4
 10
2169.829533694806
 20
-405.9178243245826
 30
0.0
 11
2169.829533694806
 21
-290.7178243249384
 31
0.0
  0
LINE
  5
472
  8
LAYER0031
 62
     4
 10
2169.829533694806
 20
-465.9178243245826
 30
0.0
 11
2169.829533694806
 21
-405.9178243245826
 31
0.0
  0
INSERT
  5
473
  8
LAYER0031
 62
     4
  2
_OPEN30
 10
2169.829533694806
 20
-405.9178243245826
 30
0.0
 41
36.00003345389238
 42
35.99987128774157
 50
90.0
  0
LINE
  5
474
  8
LAYER0031
 62
     4
 10
2169.829533694806
 20
-230.7178243249384
 30
0.0
 11
2169.829533694806
 21
-290.7178243249384
 31
0.0
  0
INSERT
  5
475
  8
LAYER0031
 62
     4
  2
_OPEN30
 10
2169.829533694806
 20
-290.7178243249384
 30
0.0
 41
36.00003345389238
 42
35.99987128774157
 50
270.0
  0
TEXT
  5
476
  8
LAYER0031
 62
     4
 10
2157.829533694806
 20
-377.1178243247607
 30
0.0
 40
36.0
  1
48
 50
90.0
 41
0.800000000000005
  7
FDASTYLE0
 72
     5
 11
2157.829533694806
 21
-319.5178243247603
 31
0.0
  0
ENDBLK
  5
86
  8
0
  0
BLOCK
  8
0
  2
DA_IMAGEDIMGROUP_13
 70
     0
 10
0.0
 20
0.0
 30
0.0
  3
DA_IMAGEDIMGROUP_13
  1

  0
LINE
  5
477
  8
LAYER0031
 62
     4
 10
1963.987886811145
 20
-278.7178243249384
 30
0.0
 11
1963.987886811145
 21
-188.9966051847853
 31
0.0
  0
LINE
  5
478
  8
LAYER0031
 62
     4
 10
2004.787886811145
 20
-290.6218243250367
 30
0.0
 11
2004.787886811145
 21
-188.9966051847853
 31
0.0
  0
LINE
  5
479
  8
LAYER0031
 62
     4
 10
1963.987886811145
 20
-200.9966051847853
 30
0.0
 11
2004.787886811145
 21
-200.9966051847853
 31
0.0
  0
LINE
  5
47A
  8
LAYER0031
 62
     4
 10
1847.614526811145
 20
-200.9966051847853
 30
0.0
 11
1963.987886811145
 21
-200.9966051847853
 31
0.0
  0
INSERT
  5
47B
  8
LAYER0031
 62
     4
  2
_OPEN30
 10
1963.987886811145
 20
-200.9966051847853
 30
0.0
 41
36.00003345389238
 42
35.99987128774157
 50
360.0
  0
LINE
  5
47C
  8
LAYER0031
 62
     4
 10
2064.787886811145
 20
-200.9966051847853
 30
0.0
 11
2004.787886811145
 21
-200.9966051847853
 31
0.0
  0
INSERT
  5
47D
  8
LAYER0031
 62
     4
  2
_OPEN30
 10
2004.787886811145
 20
-200.9966051847853
 30
0.0
 41
36.00003345389238
 42
35.99987128774157
 50
180.0
  0
TEXT
  5
47E
  8
LAYER0031
 62
     4
 10
1859.614526811145
 20
-188.9966051847853
 30
0.0
 40
36.0
  1
17
 41
0.7999999999999987
  7
FDASTYLE0
 72
     5
 11
1917.214526811145
 21
-188.9966051847853
 31
0.0
  0
ENDBLK
  5
89
  8
0
  0
BLOCK
  8
0
  2
DC_GROUP_7
 70
     0
 10
0.0
 20
0.0
 30
0.0
  3
DC_GROUP_7
  1

  0
INSERT
  5
47F
  8
LAYER0023
  6
CONTINUOUS
  2
DC_GROUP_8
 10
0.0
 20
0.0
 30
0.0
  0
INSERT
  5
480
  8
LAYER0023
  6
CONTINUOUS
  2
DC_GROUP_9
 10
0.0
 20
0.0
 30
0.0
  0
INSERT
  5
481
  8
LAYER0023
  6
CONTINUOUS
  2
DC_GROUP_10
 10
0.0
 20
0.0
 30
0.0
  0
ENDBLK
  5
8C
  8
0
  0
BLOCK
  8
0
  2
DC_GROUP_8
 70
     0
 10
0.0
 20
0.0
 30
0.0
  3
DC_GROUP_8
  1

  0
LINE
  5
482
  8
LAYER0023
 62
     3
 10
-358.5310198072396
 20
-1335.38610618352
 30
0.0
 11
-375.0290205474322
 21
-1335.38610618352
 31
0.0
  0
LINE
  5
483
  8
LAYER0023
 62
     3
 10
-358.5310198072396
 20
-1348.549692321044
 30
0.0
 11
-375.0290205474322
 21
-1348.549692321044
 31
0.0
  0
LINE
  5
484
  8
LAYER0023
 62
     3
 10
-377.7310198072396
 20
-1341.967899252282
 30
0.0
 11
-377.7310198072396
 21
-1381.364313114758
 31
0.0
  0
LINE
  5
485
  8
LAYER0023
 62
     3
 10
-358.5310198072396
 20
-1387.94610618352
 30
0.0
 11
-375.0290205474322
 21
-1387.94610618352
 31
0.0
  0
LINE
  5
486
  8
LAYER0023
 62
     3
 10
-358.5310198072396
 20
-1374.782520045997
 30
0.0
 11
-375.0290205474322
 21
-1374.782520045997
 31
0.0
  0
ARC
  5
487
  8
LAYER0023
 62
     3
 10
-368.3637337474337
 20
-1341.967899252282
 30
0.0
 40
9.367286059805856
 50
135.3611192140504
 51
224.6388807859499
  0
ARC
  5
488
  8
LAYER0023
 62
     3
 10
-368.3637337474337
 20
-1381.364313114758
 30
0.0
 40
9.367286059805904
 50
135.3611192140501
 51
224.6388807859496
  0
ARC
  5
489
  8
LAYER0023
 62
     3
 10
-344.5442763318644
 20
-1361.66610618352
 30
0.0
 40
33.18674347537529
 50
156.7196482575294
 51
203.2803517424706
  0
LINE
  5
48A
  8
LAYER0023
 62
     3
 10
-352.5310198072396
 20
-1390.46610618352
 30
0.0
 11
-358.5310198072396
 21
-1390.46610618352
 31
0.0
  0
LINE
  5
48B
  8
LAYER0023
 62
     3
 10
-352.5310198072396
 20
-1332.86610618352
 30
0.0
 11
-352.5310198072396
 21
-1390.46610618352
 31
0.0
  0
LINE
  5
48C
  8
LAYER0023
 62
     3
 10
-352.5310198072396
 20
-1332.86610618352
 30
0.0
 11
-358.5310198072396
 21
-1332.86610618352
 31
0.0
  0
LINE
  5
48D
  8
LAYER0023
 62
     3
 10
-358.5310198072396
 20
-1332.86610618352
 30
0.0
 11
-358.5310198072396
 21
-1390.46610618352
 31
0.0
  0
LINE
  5
48E
  8
LAYER0023
 62
     3
 10
-352.5310198072396
 20
-1347.26610618352
 30
0.0
 11
-303.3310198072396
 21
-1347.26610618352
 31
0.0
  0
LINE
  5
48F
  8
LAYER0023
 62
     3
 10
-348.8000956484966
 20
-1347.26610618352
 30
0.0
 11
-344.8510198072395
 21
-1349.54610618352
 31
0.0
  0
LINE
  5
490
  8
LAYER0023
 62
     3
 10
-303.3310198072396
 20
-1347.26610618352
 30
0.0
 11
-303.3310198072396
 21
-1376.06610618352
 31
0.0
  0
LINE
  5
491
  8
LAYER0023
 62
     3
 10
-344.8510198072395
 20
-1347.26610618352
 30
0.0
 11
-344.8510198072395
 21
-1376.06610618352
 31
0.0
  0
LINE
  5
492
  8
LAYER0023
 62
     3
 10
-352.5310198072396
 20
-1376.06610618352
 30
0.0
 11
-303.3310198072396
 21
-1376.06610618352
 31
0.0
  0
LINE
  5
493
  8
LAYER0023
 62
     3
 10
-348.8000956484966
 20
-1376.06610618352
 30
0.0
 11
-344.8510198072395
 21
-1373.78610618352
 31
0.0
  0
LINE
  5
494
  8
LAYER0023
 62
     3
 10
-298.5310198072396
 20
-1352.06610618352
 30
0.0
 11
-298.5310198072396
 21
-1371.26610618352
 31
0.0
  0
LINE
  5
495
  8
LAYER0023
 62
     3
 10
-303.3310198072396
 20
-1347.26610618352
 30
0.0
 11
-298.5310198072396
 21
-1352.06610618352
 31
0.0
  0
LINE
  5
496
  8
LAYER0023
 62
     3
 10
-303.3310198072396
 20
-1376.06610618352
 30
0.0
 11
-298.5310198072396
 21
-1371.26610618352
 31
0.0
  0
LINE
  5
497
  8
LAYER0023
 62
     4
 10
-344.8510198072395
 20
-1349.54610618352
 30
0.0
 11
-301.0510198072395
 21
-1349.54610618352
 31
0.0
  0
LINE
  5
498
  8
LAYER0023
 62
     4
 10
-344.8510198072395
 20
-1373.78610618352
 30
0.0
 11
-301.0510198072395
 21
-1373.78610618352
 31
0.0
  0
ENDBLK
  5
8F
  8
0
  0
BLOCK
  8
0
  2
DC_GROUP_9
 70
     0
 10
0.0
 20
0.0
 30
0.0
  3
DC_GROUP_9
  1

  0
CIRCLE
  5
499
  8
LAYER0023
 62
     3
 10
-209.4648453330842
 20
-1361.66610618352
 30
0.0
 40
22.8
  0
LINE
  5
49A
  8
LAYER0023
 62
     3
 10
-209.4648453330842
 20
-1335.338933908473
 30
0.0
 11
-232.2648453330842
 21
-1348.502520045996
 31
0.0
  0
LINE
  5
49B
  8
LAYER0023
 62
     3
 10
-232.2648453330842
 20
-1348.502520045996
 30
0.0
 11
-232.2648453330842
 21
-1374.829692321044
 31
0.0
  0
LINE
  5
49C
  8
LAYER0023
 62
     3
 10
-232.2648453330842
 20
-1374.829692321044
 30
0.0
 11
-209.4648453330842
 21
-1387.993278458567
 31
0.0
  0
LINE
  5
49D
  8
LAYER0023
 62
     3
 10
-209.4648453330842
 20
-1387.993278458567
 30
0.0
 11
-186.6648453330842
 21
-1374.829692321044
 31
0.0
  0
LINE
  5
49E
  8
LAYER0023
 62
     3
 10
-186.6648453330842
 20
-1374.829692321044
 30
0.0
 11
-186.6648453330842
 21
-1348.502520045996
 31
0.0
  0
LINE
  5
49F
  8
LAYER0023
 62
     3
 10
-186.6648453330842
 20
-1348.502520045996
 30
0.0
 11
-209.4648453330842
 21
-1335.338933908473
 31
0.0
  0
CIRCLE
  5
4A0
  8
LAYER0023
 62
     3
 10
-209.4648453330842
 20
-1361.66610618352
 30
0.0
 40
12.3
  0
CIRCLE
  5
4A1
  8
LAYER0023
 62
     4
 10
-209.4648453330842
 20
-1361.66610618352
 30
0.0
 40
14.4
  0
ENDBLK
  5
92
  8
0
  0
BLOCK
  8
0
  2
DC_GROUP_10
 70
     0
 10
0.0
 20
0.0
 30
0.0
  3
DC_GROUP_10
  1

  0
CIRCLE
  5
4A2
  8
LAYER0023
 62
     3
 10
-65.33958118399646
 20
-1361.66610618352
 30
0.0
 40
28.8
  0
CIRCLE
  5
4A3
  8
LAYER0023
 62
     3
 10
-65.33958118399646
 20
-1361.66610618352
 30
0.0
 40
15.6
  0
ENDBLK
  5
95
  8
0
  0
BLOCK
  8
0
  2
DC_GROUP_11
 70
     0
 10
0.0
 20
0.0
 30
0.0
  3
DC_GROUP_11
  1

  0
INSERT
  5
4A4
  8
LAYER0023
  6
CONTINUOUS
  2
DC_GROUP_12
 10
0.0
 20
0.0
 30
0.0
  0
INSERT
  5
4A5
  8
LAYER0023
  6
CONTINUOUS
  2
DC_GROUP_13
 10
0.0
 20
0.0
 30
0.0
  0
INSERT
  5
4A6
  8
LAYER0023
  6
CONTINUOUS
  2
DC_GROUP_14
 10
0.0
 20
0.0
 30
0.0
  0
ENDBLK
  5
98
  8
0
  0
BLOCK
  8
0
  2
DC_GROUP_12
 70
     0
 10
0.0
 20
0.0
 30
0.0
  3
DC_GROUP_12
  1

  0
LINE
  5
4A7
  8
LAYER0023
 62
     3
 10
-358.5310198072396
 20
-1428.868073396635
 30
0.0
 11
-375.0290205474322
 21
-1428.868073396635
 31
0.0
  0
LINE
  5
4A8
  8
LAYER0023
 62
     3
 10
-358.5310198072396
 20
-1442.031659534159
 30
0.0
 11
-375.0290205474322
 21
-1442.031659534159
 31
0.0
  0
LINE
  5
4A9
  8
LAYER0023
 62
     3
 10
-377.7310198072396
 20
-1435.449866465397
 30
0.0
 11
-377.7310198072396
 21
-1474.846280327873
 31
0.0
  0
LINE
  5
4AA
  8
LAYER0023
 62
     3
 10
-358.5310198072396
 20
-1481.428073396635
 30
0.0
 11
-375.0290205474322
 21
-1481.428073396635
 31
0.0
  0
LINE
  5
4AB
  8
LAYER0023
 62
     3
 10
-358.5310198072396
 20
-1468.264487259112
 30
0.0
 11
-375.0290205474322
 21
-1468.264487259112
 31
0.0
  0
ARC
  5
4AC
  8
LAYER0023
 62
     3
 10
-368.3637337474337
 20
-1435.449866465397
 30
0.0
 40
9.367286059805856
 50
135.3611192140504
 51
224.6388807859499
  0
ARC
  5
4AD
  8
LAYER0023
 62
     3
 10
-368.3637337474337
 20
-1474.846280327873
 30
0.0
 40
9.367286059805904
 50
135.3611192140501
 51
224.6388807859496
  0
ARC
  5
4AE
  8
LAYER0023
 62
     3
 10
-344.5442763318644
 20
-1455.148073396635
 30
0.0
 40
33.18674347537529
 50
156.7196482575294
 51
203.2803517424706
  0
LINE
  5
4AF
  8
LAYER0023
 62
     3
 10
-352.5310198072396
 20
-1483.948073396635
 30
0.0
 11
-358.5310198072396
 21
-1483.948073396635
 31
0.0
  0
LINE
  5
4B0
  8
LAYER0023
 62
     3
 10
-352.5310198072396
 20
-1426.348073396635
 30
0.0
 11
-352.5310198072396
 21
-1483.948073396635
 31
0.0
  0
LINE
  5
4B1
  8
LAYER0023
 62
     3
 10
-352.5310198072396
 20
-1426.348073396635
 30
0.0
 11
-358.5310198072396
 21
-1426.348073396635
 31
0.0
  0
LINE
  5
4B2
  8
LAYER0023
 62
     3
 10
-358.5310198072396
 20
-1426.348073396635
 30
0.0
 11
-358.5310198072396
 21
-1483.948073396635
 31
0.0
  0
LINE
  5
4B3
  8
LAYER0023
 62
     3
 10
-352.5310198072396
 20
-1440.748073396635
 30
0.0
 11
-303.3310198072396
 21
-1440.748073396635
 31
0.0
  0
LINE
  5
4B4
  8
LAYER0023
 62
     3
 10
-348.8000956484966
 20
-1440.748073396635
 30
0.0
 11
-344.8510198072395
 21
-1443.028073396635
 31
0.0
  0
LINE
  5
4B5
  8
LAYER0023
 62
     3
 10
-303.3310198072396
 20
-1440.748073396635
 30
0.0
 11
-303.3310198072396
 21
-1469.548073396635
 31
0.0
  0
LINE
  5
4B6
  8
LAYER0023
 62
     3
 10
-344.8510198072395
 20
-1440.748073396635
 30
0.0
 11
-344.8510198072395
 21
-1469.548073396635
 31
0.0
  0
LINE
  5
4B7
  8
LAYER0023
 62
     3
 10
-352.5310198072396
 20
-1469.548073396635
 30
0.0
 11
-303.3310198072396
 21
-1469.548073396635
 31
0.0
  0
LINE
  5
4B8
  8
LAYER0023
 62
     3
 10
-348.8000956484966
 20
-1469.548073396635
 30
0.0
 11
-344.8510198072395
 21
-1467.268073396635
 31
0.0
  0
LINE
  5
4B9
  8
LAYER0023
 62
     3
 10
-298.5310198072396
 20
-1445.548073396635
 30
0.0
 11
-298.5310198072396
 21
-1464.748073396635
 31
0.0
  0
LINE
  5
4BA
  8
LAYER0023
 62
     3
 10
-303.3310198072396
 20
-1440.748073396635
 30
0.0
 11
-298.5310198072396
 21
-1445.548073396635
 31
0.0
  0
LINE
  5
4BB
  8
LAYER0023
 62
     3
 10
-303.3310198072396
 20
-1469.548073396635
 30
0.0
 11
-298.5310198072396
 21
-1464.748073396635
 31
0.0
  0
LINE
  5
4BC
  8
LAYER0023
 62
     4
 10
-344.8510198072395
 20
-1443.028073396635
 30
0.0
 11
-301.0510198072395
 21
-1443.028073396635
 31
0.0
  0
LINE
  5
4BD
  8
LAYER0023
 62
     4
 10
-344.8510198072395
 20
-1467.268073396635
 30
0.0
 11
-301.0510198072395
 21
-1467.268073396635
 31
0.0
  0
ENDBLK
  5
9B
  8
0
  0
BLOCK
  8
0
  2
DC_GROUP_13
 70
     0
 10
0.0
 20
0.0
 30
0.0
  3
DC_GROUP_13
  1

  0
CIRCLE
  5
4BE
  8
LAYER0023
 62
     3
 10
-209.4648453330842
 20
-1455.148073396635
 30
0.0
 40
22.8
  0
LINE
  5
4BF
  8
LAYER0023
 62
     3
 10
-209.4648453330842
 20
-1428.820901121588
 30
0.0
 11
-232.2648453330842
 21
-1441.984487259111
 31
0.0
  0
LINE
  5
4C0
  8
LAYER0023
 62
     3
 10
-232.2648453330842
 20
-1441.984487259111
 30
0.0
 11
-232.2648453330842
 21
-1468.311659534159
 31
0.0
  0
LINE
  5
4C1
  8
LAYER0023
 62
     3
 10
-232.2648453330842
 20
-1468.311659534159
 30
0.0
 11
-209.4648453330842
 21
-1481.475245671682
 31
0.0
  0
LINE
  5
4C2
  8
LAYER0023
 62
     3
 10
-209.4648453330842
 20
-1481.475245671682
 30
0.0
 11
-186.6648453330842
 21
-1468.311659534159
 31
0.0
  0
LINE
  5
4C3
  8
LAYER0023
 62
     3
 10
-186.6648453330842
 20
-1468.311659534159
 30
0.0
 11
-186.6648453330842
 21
-1441.984487259111
 31
0.0
  0
LINE
  5
4C4
  8
LAYER0023
 62
     3
 10
-186.6648453330842
 20
-1441.984487259111
 30
0.0
 11
-209.4648453330842
 21
-1428.820901121588
 31
0.0
  0
CIRCLE
  5
4C5
  8
LAYER0023
 62
     3
 10
-209.4648453330842
 20
-1455.148073396635
 30
0.0
 40
12.3
  0
CIRCLE
  5
4C6
  8
LAYER0023
 62
     4
 10
-209.4648453330842
 20
-1455.148073396635
 30
0.0
 40
14.4
  0
ENDBLK
  5
9E
  8
0
  0
BLOCK
  8
0
  2
DC_GROUP_14
 70
     0
 10
0.0
 20
0.0
 30
0.0
  3
DC_GROUP_14
  1

  0
CIRCLE
  5
4C7
  8
LAYER0023
 62
     3
 10
-65.33958118399646
 20
-1455.148073396635
 30
0.0
 40
28.8
  0
CIRCLE
  5
4C8
  8
LAYER0023
 62
     3
 10
-65.33958118399646
 20
-1455.148073396635
 30
0.0
 40
15.6
  0
ENDBLK
  5
A1
  8
0
  0
BLOCK
  8
0
  2
DC_GROUP_15
 70
     0
 10
0.0
 20
0.0
 30
0.0
  3
DC_GROUP_15
  1

  0
LINE
  5
4C9
  8
LAYER0015
 62
     4
 10
-236.1393442622951
 20
-1282.229508196721
 30
0.0
 11
-331.4950527877341
 21
-1163.988429625177
 31
0.0
  0
CIRCLE
  5
4CA
  8
LAYER0015
 62
     4
 10
-357.8606557377049
 20
-1131.295081967213
 30
0.0
 40
42.0
  0
TEXT
  5
4CB
  8
LAYER0015
 62
     4
 10
-381.8606557377049
 20
-1161.295081967213
 30
0.0
 40
60.0
  1
5
 41
0.8
  7
FDASTYLE0
 72
     5
 11
-333.8606557377049
 21
-1161.295081967213
 31
0.0
  0
ENDBLK
  5
A4
  8
0
  0
BLOCK
  8
0
  2
DC_GROUP_16
 70
     0
 10
0.0
 20
0.0
 30
0.0
  3
DC_GROUP_16
  1

  0
LINE
  5
4CC
  8
0
 62
     3
 10
384.8674736831066
 20
-1438.153287817272
 30
0.0
 11
407.2674736831066
 21
-1438.153287817272
 31
0.0
  0
LINE
  5
4CD
  8
0
 62
     3
 10
407.2674736831066
 20
-1438.153287817272
 30
0.0
 11
407.7986628261842
 21
-1437.654261528031
 31
0.0
  0
LINE
  5
4CE
  8
0
 62
     3
 10
384.8674736831066
 20
-1438.153287817272
 30
0.0
 11
384.3362845400292
 21
-1437.654261528031
 31
0.0
  0
LINE
  5
4CF
  8
0
 62
     3
 10
408.7674736831066
 20
-1422.153287817272
 30
0.0
 11
383.3674736831068
 21
-1422.153287817272
 31
0.0
  0
LINE
  5
4D0
  8
0
 62
     3
 10
383.3674736831068
 20
-1422.153287817272
 30
0.0
 11
384.3362845400292
 21
-1437.654261528031
 31
0.0
  0
LINE
  5
4D1
  8
0
 62
     3
 10
408.7674736831066
 20
-1422.153287817272
 30
0.0
 11
407.7986628261842
 21
-1437.654261528031
 31
0.0
  0
LINE
  5
4D2
  8
0
 62
     3
 10
489.0674736831071
 20
-1298.153287817273
 30
0.0
 11
513.8674736831069
 21
-1298.153287817273
 31
0.0
  0
LINE
  5
4D3
  8
0
 62
     3
 10
488.7674736831071
 20
-1297.853287817273
 30
0.0
 11
489.0674736831071
 21
-1298.153287817273
 31
0.0
  0
LINE
  5
4D4
  8
0
 62
     3
 10
514.1674736831069
 20
-1297.853287817273
 30
0.0
 11
513.8674736831069
 21
-1298.153287817273
 31
0.0
  0
LINE
  5
4D5
  8
0
 62
     3
 10
488.7674736218768
 20
-1297.853287817273
 30
0.0
 11
514.1674736831069
 21
-1297.853287817273
 31
0.0
  0
LINE
  5
4D6
  8
0
 62
     3
 10
383.3674736831072
 20
-1243.553287817272
 30
0.0
 11
383.3674736831068
 21
-1422.153287817272
 31
0.0
  0
LINE
  5
4D7
  8
0
 62
     3
 10
408.7674736831073
 20
-1243.553287817272
 30
0.0
 11
408.7674736831066
 21
-1422.153287817272
 31
0.0
  0
ARC
  5
4D8
  8
0
 62
     3
 10
448.7674736831073
 20
-1243.553287817272
 30
0.0
 40
40.0
 50
359.9999999999998
 51
539.9999999999998
  0
ARC
  5
4D9
  8
0
 62
     3
 10
448.7674736831073
 20
-1243.553287817272
 30
0.0
 40
65.39999999999999
 50
359.9999999999998
 51
539.9999999999998
  0
LINE
  5
4DA
  8
0
 62
     3
 10
488.7674736831073
 20
-1243.553287817273
 30
0.0
 11
488.7674736831071
 21
-1297.853287817273
 31
0.0
  0
LINE
  5
4DB
  8
0
 62
     3
 10
514.1674736831071
 20
-1243.553287817273
 30
0.0
 11
514.1674736831069
 21
-1297.853287817273
 31
0.0
  0
LINE
  5
4DC
  8
0
 62
     4
 10
408.0036078281494
 20
-1423.153287817272
 30
0.0
 11
407.0661078281494
 21
-1438.153287817272
 31
0.0
  0
LINE
  5
4DD
  8
0
 62
     4
 10
384.131339538064
 20
-1423.153287817272
 30
0.0
 11
385.068839538064
 21
-1438.153287817272
 31
0.0
  0
LINE
  5
4DE
  8
0
 62
     4
 10
384.131339538064
 20
-1423.153287817272
 30
0.0
 11
408.0036078281494
 21
-1423.153287817272
 31
0.0
  0
LINE
  5
4DF
  8
0
 62
     4
 10
383.3674736831068
 20
-1422.153287817272
 30
0.0
 11
384.131339538064
 21
-1423.153287817272
 31
0.0
  0
LINE
  5
4E0
  8
0
 62
     4
 10
408.0036078281494
 20
-1423.153287817272
 30
0.0
 11
408.7674736831066
 21
-1422.153287817272
 31
0.0
  0
LINE
  5
4E1
  8
0
  6
CENTER
 62
     4
 10
501.4674736831071
 20
-1294.362570856602
 30
0.0
 11
501.4674736831071
 21
-1302.112058975418
 31
0.0
  0
LINE
  5
4E2
  8
0
  6
CENTER
 62
     4
 10
396.0674736831068
 20
-1398.896219402083
 30
0.0
 11
396.0674736831065
 21
-1443.673224189008
 31
0.0
  0
ENDBLK
  5
A7
  8
0
  0
BLOCK
  8
0
  2
DA_IMAGEDIMGROUP_14
 70
     0
 10
0.0
 20
0.0
 30
0.0
  3
DA_IMAGEDIMGROUP_14
  1

  0
LINE
  5
4E3
  8
LAYER0015
 62
     4
 10
460.7674736831073
 20
-1178.153287817273
 30
0.0
 11
713.8665621986499
 21
-1178.153287817273
 31
0.0
  0
LINE
  5
4E4
  8
LAYER0015
 62
     4
 10
525.8674736831069
 20
-1298.153287817273
 30
0.0
 11
713.8665621986499
 21
-1298.153287817273
 31
0.0
  0
LINE
  5
4E5
  8
LAYER0015
 62
     4
 10
701.8665621986499
 20
-1298.153287817273
 30
0.0
 11
701.8665621986499
 21
-1178.153287817273
 31
0.0
  0
INSERT
  5
4E6
  8
LAYER0015
 62
     4
  2
_OPEN30
 10
701.8665621986499
 20
-1298.153287817273
 30
0.0
 41
36.00003345389238
 42
35.99987128774157
 50
270.0
  0
INSERT
  5
4E7
  8
LAYER0015
 62
     4
  2
_OPEN30
 10
701.8665621986499
 20
-1178.153287817273
 30
0.0
 41
36.00003345389238
 42
35.99987128774157
 50
90.0
  0
TEXT
  5
4E8
  8
LAYER0015
 62
     4
 10
689.8665621986499
 20
-1281.353287817273
 30
0.0
 40
36.0
  1
120
 50
90.0
 41
0.8000000000000008
  7
FDASTYLE0
 72
     5
 11
689.8665621986499
 21
-1194.953287817272
 31
0.0
  0
ENDBLK
  5
AA
  8
0
  0
BLOCK
  8
0
  2
DA_IMAGEDIMGROUP_15
 70
     0
 10
0.0
 20
0.0
 30
0.0
  3
DA_IMAGEDIMGROUP_15
  1

  0
LINE
  5
4E9
  8
LAYER0015
 62
     4
 10
488.7674736831073
 20
-1231.553287817273
 30
0.0
 11
488.7674736831073
 21
-1064.585583413692
 31
0.0
  0
LINE
  5
4EA
  8
LAYER0015
 62
     4
 10
408.7674736831073
 20
-1231.553287817272
 30
0.0
 11
408.7674736831073
 21
-1064.585583413692
 31
0.0
  0
LINE
  5
4EB
  8
LAYER0015
 62
     4
 10
408.7674736831073
 20
-1076.585583413692
 30
0.0
 11
488.7674736831073
 21
-1076.585583413692
 31
0.0
  0
INSERT
  5
4EC
  8
LAYER0015
 62
     4
  2
_OPEN30
 10
408.7674736831073
 20
-1076.585583413692
 30
0.0
 41
36.00003345389238
 42
35.99987128774157
 50
180.0
  0
INSERT
  5
4ED
  8
LAYER0015
 62
     4
  2
_OPEN30
 10
488.7674736831073
 20
-1076.585583413692
 30
0.0
 41
36.00003345389238
 42
35.99987128774157
 50
360.0
  0
TEXT
  5
4EE
  8
LAYER0015
 62
     4
 10
419.9674736831072
 20
-1064.585583413692
 30
0.0
 40
36.0
  1
80
 41
0.8000000000000003
  7
FDASTYLE0
 72
     5
 11
477.5674736831073
 21
-1064.585583413692
 31
0.0
  0
ENDBLK
  5
AD
  8
0
  0
BLOCK
  8
0
  2
DA_IMAGEDIMGROUP_16
 70
     0
 10
0.0
 20
0.0
 30
0.0
  3
DA_IMAGEDIMGROUP_16
  1

  0
LINE
  5
4EF
  8
LAYER0015
 62
     4
 10
408.7674736831066
 20
-1434.153287817272
 30
0.0
 11
408.7674736831066
 21
-1533.226374156219
 31
0.0
  0
LINE
  5
4F0
  8
LAYER0015
 62
     4
 10
383.3674736831068
 20
-1434.153287817272
 30
0.0
 11
383.3674736831068
 21
-1533.226374156219
 31
0.0
  0
LINE
  5
4F1
  8
LAYER0015
 62
     4
 10
383.3674736831068
 20
-1521.226374156219
 30
0.0
 11
408.7674736831066
 21
-1521.226374156219
 31
0.0
  0
LINE
  5
4F2
  8
LAYER0015
 62
     4
 10
611.5408336831066
 20
-1521.226374156219
 30
0.0
 11
408.7674736831066
 21
-1521.226374156219
 31
0.0
  0
INSERT
  5
4F3
  8
LAYER0015
 62
     4
  2
_OPEN30
 10
408.7674736831066
 20
-1521.226374156219
 30
0.0
 41
36.00003345389238
 42
35.99987128774157
 50
180.0
  0
LINE
  5
4F4
  8
LAYER0015
 62
     4
 10
323.3674736831068
 20
-1521.226374156219
 30
0.0
 11
383.3674736831068
 21
-1521.226374156219
 31
0.0
  0
INSERT
  5
4F5
  8
LAYER0015
 62
     4
  2
_OPEN30
 10
383.3674736831068
 20
-1521.226374156219
 30
0.0
 41
36.00003345389238
 42
35.99987128774157
 50
360.0
  0
TEXT
  5
4F6
  8
LAYER0015
 62
     4
 10
455.5408336831066
 20
-1509.226374156219
 30
0.0
 40
36.0
  1
φ25.4
 41
0.7692307692307693
  7
FDASTYLE0
 72
     5
 11
599.5408336831066
 21
-1509.226374156219
 31
0.0
  0
ENDBLK
  5
B0
  8
0
  0
BLOCK
  8
0
  2
DC_GROUP_17
 70
     0
 10
0.0
 20
0.0
 30
0.0
  3
DC_GROUP_17
  1

  0
LINE
  5
4F7
  8
LAYER0015
 62
     4
 10
117.3780737704918
 20
428.1342213114808
 30
0.0
 11
288.0178605801046
 21
607.097900160587
 31
0.0
  0
CIRCLE
  5
4F8
  8
LAYER0015
 62
     4
 10
317.0010245901639
 20
637.4948770491858
 30
0.0
 40
42.0
  0
TEXT
  5
4F9
  8
LAYER0015
 62
     4
 10
293.0010245901639
 20
607.4948770491858
 30
0.0
 40
60.0
  1
1
 41
0.8
  7
FDASTYLE0
 72
     5
 11
341.0010245901639
 21
607.4948770491858
 31
0.0
  0
ENDBLK
  5
B3
  8
0
  0
BLOCK
  8
0
  2
DC_GROUP_18
 70
     0
 10
0.0
 20
0.0
 30
0.0
  3
DC_GROUP_18
  1

  0
LINE
  5
4FA
  8
LAYER0015
 62
     4
 10
1236.67084232075
 20
414.8067499406527
 30
0.0
 11
1371.197617293344
 21
327.0417383304721
 31
0.0
  0
CIRCLE
  5
4FB
  8
LAYER0015
 62
     4
 10
1406.373653699405
 20
304.0929592178603
 30
0.0
 40
42.0
  0
TEXT
  5
4FC
  8
LAYER0015
 62
     4
 10
1382.373653699405
 20
274.0929592178603
 30
0.0
 40
60.0
  1
3
 41
0.8
  7
FDASTYLE0
 72
     5
 11
1430.373653699405
 21
274.0929592178603
 31
0.0
  0
ENDBLK
  5
B6
  8
0
  0
BLOCK
  8
0
  2
DA_IMAGEDIMGROUP_17
 70
     0
 10
0.0
 20
0.0
 30
0.0
  3
DA_IMAGEDIMGROUP_17
  1

  0
LINE
  5
4FD
  8
LAYER0015
 62
     4
 10
372.8674736831066
 20
-1438.153287817272
 30
0.0
 11
196.5697926711669
 21
-1438.153287817272
 31
0.0
  0
LINE
  5
4FE
  8
LAYER0015
 62
     4
 10
436.7674736831073
 20
-1178.153287817273
 30
0.0
 11
196.5697926711669
 21
-1178.153287817273
 31
0.0
  0
LINE
  5
4FF
  8
LAYER0015
 62
     4
 10
208.5697926711669
 20
-1178.153287817273
 30
0.0
 11
208.5697926711669
 21
-1438.153287817272
 31
0.0
  0
INSERT
  5
500
  8
LAYER0015
 62
     4
  2
_OPEN30
 10
208.5697926711669
 20
-1178.153287817273
 30
0.0
 41
36.00003345389238
 42
35.99987128774157
 50
90.0
  0
INSERT
  5
501
  8
LAYER0015
 62
     4
  2
_OPEN30
 10
208.5697926711669
 20
-1438.153287817272
 30
0.0
 41
36.00003345389238
 42
35.99987128774157
 50
270.0
  0
TEXT
  5
502
  8
LAYER0015
 62
     4
 10
196.5697926711669
 20
-1351.353287817272
 30
0.0
 40
36.0
  1
260
 50
90.0
 41
0.8000000000000008
  7
FDASTYLE0
 72
     5
 11
196.5697926711669
 21
-1264.953287817272
 31
0.0
  0
ENDBLK
  5
B9
  8
0
  0
BLOCK
  8
0
  2
DC_GROUP_19
 70
     0
 10
0.0
 20
0.0
 30
0.0
  3
DC_GROUP_19
  1

  0
LINE
  5
503
  8
LAYER0015
 62
     4
 10
396.7561475409835
 20
-1293.599385245901
 30
0.0
 11
286.7352732791524
 21
-1066.836451554321
 31
0.0
  0
CIRCLE
  5
504
  8
LAYER0015
 62
     4
 10
268.4016393442623
 20
-1029.049180327869
 30
0.0
 40
42.0
  0
TEXT
  5
505
  8
LAYER0015
 62
     4
 10
244.4016393442623
 20
-1059.049180327869
 30
0.0
 40
60.0
  1
4
 41
0.8
  7
FDASTYLE0
 72
     5
 11
292.4016393442623
 21
-1059.049180327869
 31
0.0
  0
ENDBLK
  5
BC
  8
0
  0
BLOCK
  8
0
  2
DC_GROUP_20
 70
     0
 10
0.0
 20
0.0
 30
0.0
  3
DC_GROUP_20
  1

  0
LINE
  5
506
  8
LAYER0015
 62
     4
 10
16.24795081967216
 20
-283.3985655737705
 30
0.0
 11
-164.7475873185781
 21
-143.5383770123953
 31
0.0
  0
CIRCLE
  5
507
  8
LAYER0015
 62
     4
 10
-197.9815573770491
 20
-117.8575819672131
 30
0.0
 40
42.0
  0
TEXT
  5
508
  8
LAYER0015
 62
     4
 10
-221.9815573770491
 20
-147.8575819672131
 30
0.0
 40
60.0
  1
2
 41
0.8
  7
FDASTYLE0
 72
     5
 11
-173.9815573770491
 21
-147.8575819672131
 31
0.0
  0
ENDBLK
  5
BF
  8
0
  0
BLOCK
  8
0
  2
DC_GROUP_21
 70
     0
 10
0.0
 20
0.0
 30
0.0
  3
DC_GROUP_21
  1

  0
LINE
  5
509
  8
ZUWAKU
 62
   190
 10
-2112.345216282057
 20
-1648.785842696629
 30
0.0
 11
-2084.701685393258
 21
-1600.905842696629
 31
0.0
  0
LINE
  5
50A
  8
ZUWAKU
 62
   190
 10
-2057.058154504459
 20
-1648.785842696629
 30
0.0
 11
-2112.345216282057
 21
-1648.785842696629
 31
0.0
  0
LINE
  5
50B
  8
ZUWAKU
 62
   190
 10
-2084.701685393257
 20
-1600.905842696629
 30
0.0
 11
-2057.058154504459
 21
-1648.785842696629
 31
0.0
  0
TEXT
  5
50C
  8
ZUWAKU
 62
   190
 10
-2094.301685393258
 20
-1644.825842696629
 30
0.0
 40
23.99999999999998
  1
1
 41
0.7999999999999932
  7
FDASTYLE0
 72
     5
 11
-2075.101685393258
 21
-1644.825842696629
 31
0.0
  0
ENDBLK
  5
C2
  8
0
  0
BLOCK
  8
0
  2
DC_GROUP_22
 70
     0
 10
0.0
 20
0.0
 30
0.0
  3
DC_GROUP_22
  1

  0
LINE
  5
50D
  8
0
  6
CENTER
 62
     4
 10
48.3890085455306
 20
-57.67408717720983
 30
0.0
 11
7.311423473730542
 21
-57.67408717720983
 31
0.0
  0
LINE
  5
50E
  8
0
  6
CENTER
 62
     4
 10
27.43105697828571
 20
-41.74604398610373
 30
0.0
 11
27.43105697828571
 21
-73.18297133697107
 31
0.0
  0
ENDBLK
  5
C5
  8
0
  0
BLOCK
  8
0
  2
DC_GROUP_23
 70
     0
 10
0.0
 20
0.0
 30
0.0
  3
DC_GROUP_23
  1

  0
ARC
  5
50F
  8
0
 62
     3
 10
22.93105697828571
 20
-57.67408717720983
 30
0.0
 40
7.5
 50
90.0
 51
270.0
  0
LINE
  5
510
  8
0
 62
     3
 10
31.93105697828571
 20
-50.17408717720983
 30
0.0
 11
22.93105697828571
 21
-50.17408717720983
 31
0.0
  0
ARC
  5
511
  8
0
 62
     3
 10
31.93105697828571
 20
-57.67408717720983
 30
0.0
 40
7.5
 50
270.0
 51
450.0
  0
LINE
  5
512
  8
0
 62
     3
 10
31.93105697828571
 20
-65.17408717720983
 30
0.0
 11
22.93105697828571
 21
-65.17408717720983
 31
0.0
  0
ENDBLK
  5
C8
  8
0
  0
BLOCK
  8
0
  2
DC_GROUP_24
 70
     0
 10
0.0
 20
0.0
 30
0.0
  3
DC_GROUP_24
  1

  0
LINE
  5
513
  8
0
  6
CENTER
 62
     4
 10
48.3890085455306
 20
-97.67408717720983
 30
0.0
 11
7.311423473730542
 21
-97.67408717720983
 31
0.0
  0
LINE
  5
514
  8
0
  6
CENTER
 62
     4
 10
27.43105697828571
 20
-81.74604398610373
 30
0.0
 11
27.43105697828571
 21
-113.1829713369711
 31
0.0
  0
ENDBLK
  5
CB
  8
0
  0
BLOCK
  8
0
  2
DC_GROUP_25
 70
     0
 10
0.0
 20
0.0
 30
0.0
  3
DC_GROUP_25
  1

  0
ARC
  5
515
  8
0
 62
     3
 10
22.93105697828571
 20
-97.67408717720983
 30
0.0
 40
7.5
 50
90.0
 51
270.0
  0
LINE
  5
516
  8
0
 62
     3
 10
31.93105697828571
 20
-90.17408717720983
 30
0.0
 11
22.93105697828571
 21
-90.17408717720983
 31
0.0
  0
ARC
  5
517
  8
0
 62
     3
 10
31.93105697828571
 20
-97.67408717720983
 30
0.0
 40
7.5
 50
270.0
 51
450.0
  0
LINE
  5
518
  8
0
 62
     3
 10
31.93105697828571
 20
-105.1740871772098
 30
0.0
 11
22.93105697828571
 21
-105.1740871772098
 31
0.0
  0
ENDBLK
  5
CE
  8
0
  0
BLOCK
  8
0
  2
DC_GROUP_26
 70
     0
 10
0.0
 20
0.0
 30
0.0
  3
DC_GROUP_26
  1

  0
LINE
  5
519
  8
0
  6
CENTER
 62
     4
 10
48.3890085455306
 20
-137.6740871772098
 30
0.0
 11
7.311423473730542
 21
-137.6740871772098
 31
0.0
  0
LINE
  5
51A
  8
0
  6
CENTER
 62
     4
 10
27.43105697828571
 20
-121.7460439861037
 30
0.0
 11
27.43105697828571
 21
-153.1829713369711
 31
0.0
  0
ENDBLK
  5
D1
  8
0
  0
BLOCK
  8
0
  2
DC_GROUP_27
 70
     0
 10
0.0
 20
0.0
 30
0.0
  3
DC_GROUP_27
  1

  0
ARC
  5
51B
  8
0
 62
     3
 10
22.93105697828571
 20
-137.6740871772098
 30
0.0
 40
7.5
 50
90.0
 51
270.0
  0
LINE
  5
51C
  8
0
 62
     3
 10
31.93105697828571
 20
-130.1740871772098
 30
0.0
 11
22.93105697828571
 21
-130.1740871772098
 31
0.0
  0
ARC
  5
51D
  8
0
 62
     3
 10
31.93105697828571
 20
-137.6740871772098
 30
0.0
 40
7.5
 50
270.0
 51
450.0
  0
LINE
  5
51E
  8
0
 62
     3
 10
31.93105697828571
 20
-145.1740871772098
 30
0.0
 11
22.93105697828571
 21
-145.1740871772098
 31
0.0
  0
ENDBLK
  5
D4
  8
0
  0
BLOCK
  8
0
  2
DC_GROUP_28
 70
     0
 10
0.0
 20
0.0
 30
0.0
  3
DC_GROUP_28
  1

  0
LINE
  5
51F
  8
0
  6
CENTER
 62
     4
 10
48.3890085455306
 20
-512.6740871772099
 30
0.0
 11
7.311423473730542
 21
-512.6740871772099
 31
0.0
  0
LINE
  5
520
  8
0
  6
CENTER
 62
     4
 10
27.43105697828571
 20
-496.7460439861038
 30
0.0
 11
27.43105697828571
 21
-528.1829713369712
 31
0.0
  0
ENDBLK
  5
D7
  8
0
  0
BLOCK
  8
0
  2
DC_GROUP_29
 70
     0
 10
0.0
 20
0.0
 30
0.0
  3
DC_GROUP_29
  1

  0
ARC
  5
521
  8
0
 62
     3
 10
22.93105697828571
 20
-512.6740871772099
 30
0.0
 40
7.5
 50
90.0
 51
270.0
  0
LINE
  5
522
  8
0
 62
     3
 10
31.93105697828571
 20
-505.1740871772099
 30
0.0
 11
22.93105697828571
 21
-505.1740871772099
 31
0.0
  0
ARC
  5
523
  8
0
 62
     3
 10
31.93105697828571
 20
-512.6740871772099
 30
0.0
 40
7.5
 50
270.0
 51
450.0
  0
LINE
  5
524
  8
0
 62
     3
 10
31.93105697828571
 20
-520.1740871772099
 30
0.0
 11
22.93105697828571
 21
-520.1740871772099
 31
0.0
  0
ENDBLK
  5
DA
  8
0
  0
BLOCK
  8
0
  2
DC_GROUP_30
 70
     0
 10
0.0
 20
0.0
 30
0.0
  3
DC_GROUP_30
  1

  0
LINE
  5
525
  8
0
  6
CENTER
 62
     4
 10
48.3890085455306
 20
-552.6740871772099
 30
0.0
 11
7.311423473730542
 21
-552.6740871772099
 31
0.0
  0
LINE
  5
526
  8
0
  6
CENTER
 62
     4
 10
27.43105697828571
 20
-536.7460439861038
 30
0.0
 11
27.43105697828571
 21
-568.1829713369712
 31
0.0
  0
ENDBLK
  5
DD
  8
0
  0
BLOCK
  8
0
  2
DC_GROUP_31
 70
     0
 10
0.0
 20
0.0
 30
0.0
  3
DC_GROUP_31
  1

  0
ARC
  5
527
  8
0
 62
     3
 10
22.93105697828571
 20
-552.6740871772099
 30
0.0
 40
7.5
 50
90.0
 51
270.0
  0
LINE
  5
528
  8
0
 62
     3
 10
31.93105697828571
 20
-545.1740871772099
 30
0.0
 11
22.93105697828571
 21
-545.1740871772099
 31
0.0
  0
ARC
  5
529
  8
0
 62
     3
 10
31.93105697828571
 20
-552.6740871772099
 30
0.0
 40
7.5
 50
270.0
 51
450.0
  0
LINE
  5
52A
  8
0
 62
     3
 10
31.93105697828571
 20
-560.1740871772099
 30
0.0
 11
22.93105697828571
 21
-560.1740871772099
 31
0.0
  0
ENDBLK
  5
E0
  8
0
  0
BLOCK
  8
0
  2
DC_GROUP_32
 70
     0
 10
0.0
 20
0.0
 30
0.0
  3
DC_GROUP_32
  1

  0
LINE
  5
52B
  8
0
  6
CENTER
 62
     4
 10
48.3890085455306
 20
-592.6740871772099
 30
0.0
 11
7.311423473730542
 21
-592.6740871772099
 31
0.0
  0
LINE
  5
52C
  8
0
  6
CENTER
 62
     4
 10
27.43105697828571
 20
-586.7460439861038
 30
0.0
 11
27.43105697828571
 21
-618.1829713369712
 31
0.0
  0
ENDBLK
  5
E3
  8
0
  0
BLOCK
  8
0
  2
DC_GROUP_33
 70
     0
 10
0.0
 20
0.0
 30
0.0
  3
DC_GROUP_33
  1

  0
ARC
  5
52D
  8
0
 62
     3
 10
22.93105697828571
 20
-592.6740871772099
 30
0.0
 40
7.5
 50
90.0
 51
270.0
  0
LINE
  5
52E
  8
0
 62
     3
 10
31.93105697828571
 20
-585.1740871772099
 30
0.0
 11
22.93105697828571
 21
-585.1740871772099
 31
0.0
  0
ARC
  5
52F
  8
0
 62
     3
 10
31.93105697828571
 20
-592.6740871772099
 30
0.0
 40
7.5
 50
270.0
 51
450.0
  0
LINE
  5
530
  8
0
 62
     3
 10
31.93105697828571
 20
-600.1740871772099
 30
0.0
 11
22.93105697828571
 21
-600.1740871772099
 31
0.0
  0
ENDBLK
  5
E6
  8
0
  0
BLOCK
  8
0
  2
DC_GROUP_34
 70
     0
 10
0.0
 20
0.0
 30
0.0
  3
DC_GROUP_34
  1

  0
LINE
  5
531
  8
0
  6
CENTER
 62
     4
 10
48.3890085455306
 20
-397.6740871772098
 30
0.0
 11
7.311423473730542
 21
-397.6740871772098
 31
0.0
  0
LINE
  5
532
  8
0
  6
CENTER
 62
     4
 10
27.43105697828571
 20
-381.7460439861037
 30
0.0
 11
27.43105697828571
 21
-413.1829713369711
 31
0.0
  0
ENDBLK
  5
E9
  8
0
  0
BLOCK
  8
0
  2
DC_GROUP_35
 70
     0
 10
0.0
 20
0.0
 30
0.0
  3
DC_GROUP_35
  1

  0
ARC
  5
533
  8
0
 62
     3
 10
22.93105697828571
 20
-397.6740871772098
 30
0.0
 40
7.5
 50
90.0
 51
270.0
  0
LINE
  5
534
  8
0
 62
     3
 10
31.93105697828571
 20
-390.1740871772098
 30
0.0
 11
22.93105697828571
 21
-390.1740871772098
 31
0.0
  0
ARC
  5
535
  8
0
 62
     3
 10
31.93105697828571
 20
-397.6740871772098
 30
0.0
 40
7.5
 50
270.0
 51
450.0
  0
LINE
  5
536
  8
0
 62
     3
 10
31.93105697828571
 20
-405.1740871772098
 30
0.0
 11
22.93105697828571
 21
-405.1740871772098
 31
0.0
  0
ENDBLK
  5
EC
  8
0
  0
BLOCK
  8
0
  2
DC_GROUP_36
 70
     0
 10
0.0
 20
0.0
 30
0.0
  3
DC_GROUP_36
  1

  0
LINE
  5
537
  8
0
  6
CENTER
 62
     4
 10
-1788.526894588959
 20
-57.67408717720983
 30
0.0
 11
-1747.449309517159
 21
-57.67408717720983
 31
0.0
  0
LINE
  5
538
  8
0
  6
CENTER
 62
     4
 10
-1767.568943021714
 20
-41.74604398610373
 30
0.0
 11
-1767.568943021714
 21
-73.18297133697107
 31
0.0
  0
ENDBLK
  5
EF
  8
0
  0
BLOCK
  8
0
  2
DC_GROUP_37
 70
     0
 10
0.0
 20
0.0
 30
0.0
  3
DC_GROUP_37
  1

  0
ARC
  5
539
  8
0
 62
     3
 10
-1763.068943021714
 20
-57.67408717720983
 30
0.0
 40
7.5
 50
270.0
 51
450.0
  0
LINE
  5
53A
  8
0
 62
     3
 10
-1772.068943021714
 20
-50.17408717720983
 30
0.0
 11
-1763.068943021714
 21
-50.17408717720983
 31
0.0
  0
ARC
  5
53B
  8
0
 62
     3
 10
-1772.068943021714
 20
-57.67408717720983
 30
0.0
 40
7.5
 50
90.0
 51
270.0
  0
LINE
  5
53C
  8
0
 62
     3
 10
-1772.068943021714
 20
-65.17408717720983
 30
0.0
 11
-1763.068943021714
 21
-65.17408717720983
 31
0.0
  0
ENDBLK
  5
F2
  8
0
  0
BLOCK
  8
0
  2
DC_GROUP_38
 70
     0
 10
0.0
 20
0.0
 30
0.0
  3
DC_GROUP_38
  1

  0
LINE
  5
53D
  8
0
  6
CENTER
 62
     4
 10
-1788.526894588959
 20
-97.67408717720983
 30
0.0
 11
-1747.449309517159
 21
-97.67408717720983
 31
0.0
  0
LINE
  5
53E
  8
0
  6
CENTER
 62
     4
 10
-1767.568943021714
 20
-81.74604398610373
 30
0.0
 11
-1767.568943021714
 21
-113.1829713369711
 31
0.0
  0
ENDBLK
  5
F5
  8
0
  0
BLOCK
  8
0
  2
DC_GROUP_39
 70
     0
 10
0.0
 20
0.0
 30
0.0
  3
DC_GROUP_39
  1

  0
ARC
  5
53F
  8
0
 62
     3
 10
-1763.068943021714
 20
-97.67408717720983
 30
0.0
 40
7.5
 50
270.0
 51
450.0
  0
LINE
  5
540
  8
0
 62
     3
 10
-1772.068943021714
 20
-90.17408717720983
 30
0.0
 11
-1763.068943021714
 21
-90.17408717720983
 31
0.0
  0
ARC
  5
541
  8
0
 62
     3
 10
-1772.068943021714
 20
-97.67408717720983
 30
0.0
 40
7.5
 50
90.0
 51
270.0
  0
LINE
  5
542
  8
0
 62
     3
 10
-1772.068943021714
 20
-105.1740871772098
 30
0.0
 11
-1763.068943021714
 21
-105.1740871772098
 31
0.0
  0
ENDBLK
  5
F8
  8
0
  0
BLOCK
  8
0
  2
DC_GROUP_40
 70
     0
 10
0.0
 20
0.0
 30
0.0
  3
DC_GROUP_40
  1

  0
LINE
  5
543
  8
0
  6
CENTER
 62
     4
 10
-1788.526894588959
 20
-137.6740871772098
 30
0.0
 11
-1747.449309517159
 21
-137.6740871772098
 31
0.0
  0
LINE
  5
544
  8
0
  6
CENTER
 62
     4
 10
-1767.568943021714
 20
-121.7460439861037
 30
0.0
 11
-1767.568943021714
 21
-153.1829713369711
 31
0.0
  0
ENDBLK
  5
FB
  8
0
  0
BLOCK
  8
0
  2
DC_GROUP_41
 70
     0
 10
0.0
 20
0.0
 30
0.0
  3
DC_GROUP_41
  1

  0
ARC
  5
545
  8
0
 62
     3
 10
-1763.068943021714
 20
-137.6740871772098
 30
0.0
 40
7.5
 50
270.0
 51
450.0
  0
LINE
  5
546
  8
0
 62
     3
 10
-1772.068943021714
 20
-130.1740871772098
 30
0.0
 11
-1763.068943021714
 21
-130.1740871772098
 31
0.0
  0
ARC
  5
547
  8
0
 62
     3
 10
-1772.068943021714
 20
-137.6740871772098
 30
0.0
 40
7.5
 50
90.0
 51
270.0
  0
LINE
  5
548
  8
0
 62
     3
 10
-1772.068943021714
 20
-145.1740871772098
 30
0.0
 11
-1763.068943021714
 21
-145.1740871772098
 31
0.0
  0
ENDBLK
  5
FE
  8
0
  0
BLOCK
  8
0
  2
DC_GROUP_42
 70
     0
 10
0.0
 20
0.0
 30
0.0
  3
DC_GROUP_42
  1

  0
LINE
  5
549
  8
0
  6
CENTER
 62
     4
 10
-1788.526894588959
 20
-512.6740871772099
 30
0.0
 11
-1747.449309517159
 21
-512.6740871772099
 31
0.0
  0
LINE
  5
54A
  8
0
  6
CENTER
 62
     4
 10
-1767.568943021714
 20
-496.7460439861038
 30
0.0
 11
-1767.568943021714
 21
-528.1829713369712
 31
0.0
  0
ENDBLK
  5
101
  8
0
  0
BLOCK
  8
0
  2
DC_GROUP_43
 70
     0
 10
0.0
 20
0.0
 30
0.0
  3
DC_GROUP_43
  1

  0
ARC
  5
54B
  8
0
 62
     3
 10
-1763.068943021714
 20
-512.6740871772099
 30
0.0
 40
7.5
 50
270.0
 51
450.0
  0
LINE
  5
54C
  8
0
 62
     3
 10
-1772.068943021714
 20
-505.1740871772099
 30
0.0
 11
-1763.068943021714
 21
-505.1740871772099
 31
0.0
  0
ARC
  5
54D
  8
0
 62
     3
 10
-1772.068943021714
 20
-512.6740871772099
 30
0.0
 40
7.5
 50
90.0
 51
270.0
  0
LINE
  5
54E
  8
0
 62
     3
 10
-1772.068943021714
 20
-520.1740871772099
 30
0.0
 11
-1763.068943021714
 21
-520.1740871772099
 31
0.0
  0
ENDBLK
  5
104
  8
0
  0
BLOCK
  8
0
  2
DC_GROUP_44
 70
     0
 10
0.0
 20
0.0
 30
0.0
  3
DC_GROUP_44
  1

  0
LINE
  5
54F
  8
0
  6
CENTER
 62
     4
 10
-1788.526894588959
 20
-552.6740871772099
 30
0.0
 11
-1747.449309517159
 21
-552.6740871772099
 31
0.0
  0
LINE
  5
550
  8
0
  6
CENTER
 62
     4
 10
-1767.568943021714
 20
-536.7460439861038
 30
0.0
 11
-1767.568943021714
 21
-568.1829713369712
 31
0.0
  0
ENDBLK
  5
107
  8
0
  0
BLOCK
  8
0
  2
DC_GROUP_45
 70
     0
 10
0.0
 20
0.0
 30
0.0
  3
DC_GROUP_45
  1

  0
ARC
  5
551
  8
0
 62
     3
 10
-1763.068943021714
 20
-552.6740871772099
 30
0.0
 40
7.5
 50
270.0
 51
450.0
  0
LINE
  5
552
  8
0
 62
     3
 10
-1772.068943021714
 20
-545.1740871772099
 30
0.0
 11
-1763.068943021714
 21
-545.1740871772099
 31
0.0
  0
ARC
  5
553
  8
0
 62
     3
 10
-1772.068943021714
 20
-552.6740871772099
 30
0.0
 40
7.5
 50
90.0
 51
270.0
  0
LINE
  5
554
  8
0
 62
     3
 10
-1772.068943021714
 20
-560.1740871772099
 30
0.0
 11
-1763.068943021714
 21
-560.1740871772099
 31
0.0
  0
ENDBLK
  5
10A
  8
0
  0
BLOCK
  8
0
  2
DC_GROUP_46
 70
     0
 10
0.0
 20
0.0
 30
0.0
  3
DC_GROUP_46
  1

  0
LINE
  5
555
  8
0
  6
CENTER
 62
     4
 10
-1788.526894588959
 20
-592.6740871772099
 30
0.0
 11
-1747.449309517159
 21
-592.6740871772099
 31
0.0
  0
LINE
  5
556
  8
0
  6
CENTER
 62
     4
 10
-1767.568943021714
 20
-586.7460439861038
 30
0.0
 11
-1767.568943021714
 21
-618.1829713369712
 31
0.0
  0
ENDBLK
  5
10D
  8
0
  0
BLOCK
  8
0
  2
DC_GROUP_47
 70
     0
 10
0.0
 20
0.0
 30
0.0
  3
DC_GROUP_47
  1

  0
ARC
  5
557
  8
0
 62
     3
 10
-1763.068943021714
 20
-592.6740871772099
 30
0.0
 40
7.5
 50
270.0
 51
450.0
  0
LINE
  5
558
  8
0
 62
     3
 10
-1772.068943021714
 20
-585.1740871772099
 30
0.0
 11
-1763.068943021714
 21
-585.1740871772099
 31
0.0
  0
ARC
  5
559
  8
0
 62
     3
 10
-1772.068943021714
 20
-592.6740871772099
 30
0.0
 40
7.5
 50
90.0
 51
270.0
  0
LINE
  5
55A
  8
0
 62
     3
 10
-1772.068943021714
 20
-600.1740871772099
 30
0.0
 11
-1763.068943021714
 21
-600.1740871772099
 31
0.0
  0
ENDBLK
  5
110
  8
0
  0
BLOCK
  8
0
  2
DC_GROUP_48
 70
     0
 10
0.0
 20
0.0
 30
0.0
  3
DC_GROUP_48
  1

  0
LINE
  5
55B
  8
0
  6
CENTER
 62
     4
 10
-1788.526894588959
 20
-397.6740871772098
 30
0.0
 11
-1747.449309517159
 21
-397.6740871772098
 31
0.0
  0
LINE
  5
55C
  8
0
  6
CENTER
 62
     4
 10
-1767.568943021714
 20
-381.7460439861037
 30
0.0
 11
-1767.568943021714
 21
-413.1829713369711
 31
0.0
  0
ENDBLK
  5
113
  8
0
  0
BLOCK
  8
0
  2
DC_GROUP_49
 70
     0
 10
0.0
 20
0.0
 30
0.0
  3
DC_GROUP_49
  1

  0
ARC
  5
55D
  8
0
 62
     3
 10
-1763.068943021714
 20
-397.6740871772098
 30
0.0
 40
7.5
 50
270.0
 51
450.0
  0
LINE
  5
55E
  8
0
 62
     3
 10
-1772.068943021714
 20
-390.1740871772098
 30
0.0
 11
-1763.068943021714
 21
-390.1740871772098
 31
0.0
  0
ARC
  5
55F
  8
0
 62
     3
 10
-1772.068943021714
 20
-397.6740871772098
 30
0.0
 40
7.5
 50
90.0
 51
270.0
  0
LINE
  5
560
  8
0
 62
     3
 10
-1772.068943021714
 20
-405.1740871772098
 30
0.0
 11
-1763.068943021714
 21
-405.1740871772098
 31
0.0
  0
ENDBLK
  5
116
  8
0
  0
BLOCK
  8
0
  2
_OPEN30
 70
     0
 10
0.0
 20
0.0
 30
0.0
  3
_OPEN30
  1

  0
LINE
  5
11D
  8
0
  6
BYBLOCK
 62
     0
 10
-1.0
 20
0.267949
 30
0.0
 11
0.0
 21
0.0
 31
0.0
  0
LINE
  5
11E
  8
0
  6
BYBLOCK
 62
     0
 10
0.0
 20
0.0
 30
0.0
 11
-1.0
 21
-0.267949
 31
0.0
  0
LINE
  5
11F
  8
0
  6
BYBLOCK
 62
     0
 10
0.0
 20
0.0
 30
0.0
 11
-1.0
 21
0.0
 31
0.0
  0
ENDBLK
  5
11C
  8
0
  0
BLOCK
  8
0
  2
_DOT
 70
     0
 10
0.0
 20
0.0
 30
0.0
  3
_DOT
  1

  0
POLYLINE
  5
152
  8
0
  6
BYBLOCK
 62
     0
 66
     1
 10
0.0
 20
0.0
 30
0.0
 70
     1
 40
0.5
 41
0.5
  0
VERTEX
  5
64E
  8
0
  6
BYBLOCK
 62
     0
 10
-0.25
 20
0.0
 30
0.0
 42
1.0
  0
VERTEX
  5
64F
  8
0
  6
BYBLOCK
 62
     0
 10
0.25
 20
0.0
 30
0.0
 42
1.0
  0
SEQEND
  5
64D
  8
0
  6
BYBLOCK
 62
     0
  0
LINE
  5
153
  8
0
  6
BYBLOCK
 62
     0
 10
-0.5
 20
0.0
 30
0.0
 11
-1.0
 21
0.0
 31
0.0
  0
ENDBLK
  5
151
  8
0
  0
ENDSEC
  0
SECTION
  2
ENTITIES
  0
INSERT
  5
561
  8
LAYER0015
  6
CONTINUOUS
  2
DA_IMAGEDIMGROUP_1
 10
0.0
 20
0.0
 30
0.0
  0
INSERT
  5
562
  8
LAYER0015
  6
CONTINUOUS
  2
DA_IMAGEDIMGROUP_2
 10
0.0
 20
0.0
 30
0.0
  0
INSERT
  5
563
  8
LAYER0015
  6
CONTINUOUS
  2
DA_IMAGEDIMGROUP_3
 10
0.0
 20
0.0
 30
0.0
  0
INSERT
  5
564
  8
LAYER0015
  6
CONTINUOUS
  2
DA_IMAGEDIMGROUP_4
 10
0.0
 20
0.0
 30
0.0
  0
INSERT
  5
565
  8
LAYER0015
  6
CONTINUOUS
  2
DA_IMAGEDIMGROUP_5
 10
0.0
 20
0.0
 30
0.0
  0
INSERT
  5
566
  8
LAYER0015
  6
CONTINUOUS
  2
DA_IMAGEDIMGROUP_6
 10
0.0
 20
0.0
 30
0.0
  0
INSERT
  5
567
  8
LAYER0015
  6
CONTINUOUS
  2
DA_IMAGEDIMGROUP_7
 10
0.0
 20
0.0
 30
0.0
  0
INSERT
  5
568
  8
LAYER0015
  6
CONTINUOUS
  2
DA_IMAGEDIMGROUP_8
 10
0.0
 20
0.0
 30
0.0
  0
INSERT
  5
569
  8
LAYER0015
  6
CONTINUOUS
  2
DA_IMAGEDIMGROUP_9
 10
0.0
 20
0.0
 30
0.0
  0
INSERT
  5
56A
  8
LAYER0015
  6
CONTINUOUS
  2
DA_IMAGEDIMGROUP_10
 10
0.0
 20
0.0
 30
0.0
  0
INSERT
  5
56B
  8
LAYER0015
  6
CONTINUOUS
  2
DC_GROUP_6
 10
0.0
 20
0.0
 30
0.0
  0
INSERT
  5
56C
  8
LAYER0015
  6
CONTINUOUS
  2
DC_GROUP_15
 10
0.0
 20
0.0
 30
0.0
  0
INSERT
  5
56D
  8
LAYER0015
  6
CONTINUOUS
  2
DA_IMAGEDIMGROUP_14
 10
0.0
 20
0.0
 30
0.0
  0
INSERT
  5
56E
  8
LAYER0015
  6
CONTINUOUS
  2
DA_IMAGEDIMGROUP_15
 10
0.0
 20
0.0
 30
0.0
  0
INSERT
  5
56F
  8
LAYER0015
  6
CONTINUOUS
  2
DA_IMAGEDIMGROUP_16
 10
0.0
 20
0.0
 30
0.0
  0
INSERT
  5
570
  8
LAYER0015
  6
CONTINUOUS
  2
DC_GROUP_17
 10
0.0
 20
0.0
 30
0.0
  0
INSERT
  5
571
  8
LAYER0015
  6
CONTINUOUS
  2
DC_GROUP_18
 10
0.0
 20
0.0
 30
0.0
  0
INSERT
  5
572
  8
LAYER0015
  6
CONTINUOUS
  2
DA_IMAGEDIMGROUP_17
 10
0.0
 20
0.0
 30
0.0
  0
INSERT
  5
573
  8
LAYER0015
  6
CONTINUOUS
  2
DC_GROUP_19
 10
0.0
 20
0.0
 30
0.0
  0
INSERT
  5
574
  8
LAYER0015
  6
CONTINUOUS
  2
DC_GROUP_20
 10
0.0
 20
0.0
 30
0.0
  0
LINE
  5
575
  8
｡｡VV
 62
     3
 10
65.43105697828571
 20
305.8259128227864
 30
0.0
 11
67.43105697937256
 21
305.8259128227864
 31
0.0
  0
LINE
  5
576
  8
｡｡VV
 62
     3
 10
-7.56894302171429
 20
355.8259128227864
 30
0.0
 11
-5.56894302171429
 21
355.8259128227864
 31
0.0
  0
LINE
  5
577
  8
｡｡VV
 62
     3
 10
-7.56894302171429
 20
355.8259128227864
 30
0.0
 11
-7.56894302171429
 21
408.02082629516
 31
0.0
  0
LINE
  5
578
  8
｡｡VV
 62
     3
 10
65.43105697828571
 20
305.8259128227864
 30
0.0
 11
65.43105697828571
 21
408.02082629516
 31
0.0
  0
LINE
  5
579
  8
｡｡VV
 62
     3
 10
67.43105697937256
 20
305.8259128227864
 30
0.0
 11
67.43105697937256
 21
408.02082629516
 31
0.0
  0
LINE
  5
57A
  8
｡｡VV
 62
     3
 10
-5.56894302171429
 20
355.8259128227864
 30
0.0
 11
-5.56894302171429
 21
408.02082629516
 31
0.0
  0
LINE
  5
57B
  8
｡｡VV
 62
     3
 10
-1805.568943021714
 20
305.8259128227864
 30
0.0
 11
-1807.568943022801
 21
305.8259128227864
 31
0.0
  0
LINE
  5
57C
  8
｡｡VV
 62
     3
 10
-1732.568943021714
 20
355.8259128227864
 30
0.0
 11
-1734.568943021714
 21
355.8259128227864
 31
0.0
  0
LINE
  5
57D
  8
｡｡VV
 62
     3
 10
-1732.568943021714
 20
355.8259128227864
 30
0.0
 11
-1732.568943021714
 21
408.02082629516
 31
0.0
  0
LINE
  5
57E
  8
｡｡VV
 62
     3
 10
-1805.568943021714
 20
305.8259128227864
 30
0.0
 11
-1805.568943021714
 21
408.02082629516
 31
0.0
  0
LINE
  5
57F
  8
｡｡VV
 62
     3
 10
-1807.568943022801
 20
305.8259128227864
 30
0.0
 11
-1807.568943022801
 21
408.02082629516
 31
0.0
  0
LINE
  5
580
  8
｡｡VV
 62
     3
 10
-1734.568943021714
 20
355.8259128227864
 30
0.0
 11
-1734.568943021714
 21
408.02082629516
 31
0.0
  0
CIRCLE
  5
581
  8
｡｡VV
 62
     3
 10
1005.699716419519
 20
385.8259128227901
 30
0.0
 40
6.0
  0
CIRCLE
  5
582
  8
｡｡VV
 62
     3
 10
1005.699716419519
 20
315.8259128227901
 30
0.0
 40
6.0
  0
LINE
  5
583
  8
｡｡VV
 62
     3
 10
1210.611591148878
 20
359.7944704490774
 30
0.0
 11
1123.327319901414
 21
309.7944704490793
 31
0.0
  0
LINE
  5
584
  8
｡｡VV
 62
     3
 10
742.6997164195186
 20
403.82591282279
 30
0.0
 11
742.6997164195186
 21
424.3259128227909
 31
0.0
  0
LINE
  5
585
  8
｡｡VV
 62
     3
 10
744.6997164195186
 20
424.3259128227909
 30
0.0
 11
744.6997164195186
 21
405.82591282279
 31
0.0
  0
LINE
  5
586
  8
｡｡VV
 62
     3
 10
745.6997164195186
 20
405.8259128227909
 30
0.0
 11
745.6997164195186
 21
385.82591282279
 31
0.0
  0
LINE
  5
587
  8
｡｡VV
 62
     3
 10
745.6997164195195
 20
403.82591282279
 30
0.0
 11
742.6997164195186
 21
403.82591282279
 31
0.0
  0
CIRCLE
  5
588
  8
｡｡VV
 62
     3
 10
1005.699716419519
 20
385.8259128227901
 30
0.0
 40
2.499999999999998
  0
LINE
  5
589
  8
｡｡VV
 62
     3
 10
1228.69971641952
 20
403.8259128227901
 30
0.0
 11
1228.699716419519
 21
424.3259128227909
 31
0.0
  0
LINE
  5
58A
  8
｡｡VV
 62
     3
 10
1226.699716419519
 20
424.3259128227909
 30
0.0
 11
1226.699716419519
 21
405.8259128227901
 31
0.0
  0
LINE
  5
58B
  8
｡｡VV
 62
     3
 10
1225.69971641952
 20
405.8259128227911
 30
0.0
 11
1225.69971641952
 21
385.8259128227901
 31
0.0
  0
LINE
  5
58C
  8
｡｡VV
 62
     3
 10
1226.69971641952
 20
405.8259128227906
 30
0.0
 11
744.6997164195195
 21
405.82591282279
 31
0.0
  0
CIRCLE
  5
58D
  8
｡｡VV
 62
     3
 10
1005.699716419519
 20
315.8259128227901
 30
0.0
 40
2.499999999999998
  0
CIRCLE
  5
58E
  8
｡｡VV
 62
     3
 10
993.5443439828337
 20
316.889370111936
 30
0.0
 40
2.499999999999998
  0
LINE
  5
58F
  8
｡｡VV
 62
     3
 10
1108.415445172055
 20
305.8259128227911
 30
0.0
 11
1019.199716419662
 21
305.8259128227901
 31
0.0
  0
LINE
  5
590
  8
｡｡VV
 62
     3
 10
1014.199716419662
 20
305.8259128227906
 30
0.0
 11
862.9839876669862
 21
305.82591282279
 31
0.0
  0
ARC
  5
591
  8
｡｡VV
 62
     3
 10
1016.699716419661
 20
305.8259128227901
 30
0.0
 40
2.499999999999998
 50
360.0
 51
540.0
  0
ARC
  5
592
  8
｡｡VV
 62
     3
 10
1195.69971641952
 20
385.8259128227901
 30
0.0
 40
29.99999999999999
 50
299.8058455205135
 51
360.0
  0
LINE
  5
593
  8
｡｡VV
 62
     3
 10
760.7878416901581
 20
359.7944704490796
 30
0.0
 11
848.0721129376275
 21
309.7944704490782
 31
0.0
  0
ARC
  5
594
  8
｡｡VV
 62
     3
 10
775.6997164195186
 20
385.8259128227909
 30
0.0
 40
29.99999999999999
 50
180.0
 51
240.1941544794826
  0
ARC
  5
595
  8
｡｡VV
 62
     3
 10
1195.69971641952
 20
385.8259128227901
 30
0.0
 40
29.99999999999999
 50
299.8058455205133
 51
360.0
  0
ARC
  5
596
  8
｡｡VV
 62
     3
 10
862.9839876669862
 20
335.82591282279
 30
0.0
 40
29.99999999999999
 50
240.1941544794869
 51
270.0
  0
ARC
  5
597
  8
｡｡VV
 62
     3
 10
1108.415445172055
 20
335.8259128227911
 30
0.0
 40
29.99999999999999
 50
270.0
 51
299.8058455205155
  0
CIRCLE
  5
598
  8
｡｡VV
 62
     3
 10
1010.699716419518
 20
335.8259128227829
 30
0.0
 40
6.0
  0
LINE
  5
599
  8
｡｡VV
 62
     3
 10
751.8997164195184
 20
424.3259128227909
 30
0.0
 11
751.8997164195184
 21
421.4509128227914
 31
0.0
  0
LINE
  5
59A
  8
｡｡VV
 62
     3
 10
751.8997164195184
 20
421.4509128227914
 30
0.0
 11
744.2997164195181
 21
421.4509128227914
 31
0.0
  0
LINE
  5
59B
  8
｡｡VV
 62
     3
 10
1219.499716419519
 20
424.3259128227909
 30
0.0
 11
1219.499716419519
 21
421.9509128227911
 31
0.0
  0
LINE
  5
59C
  8
｡｡VV
 62
     3
 10
1219.499716419519
 20
421.9509128227911
 30
0.0
 11
1227.099716419519
 21
421.9509128227911
 31
0.0
  0
LINE
  5
59D
  8
0
 62
     3
 10
139.9310569782857
 20
409.7279330763476
 30
0.0
 11
139.9310569782857
 21
408.02082629516
 31
0.0
  0
LINE
  5
59E
  8
0
 62
     3
 10
-1880.068943021714
 20
409.7279330763476
 30
0.0
 11
-1880.068943021714
 21
408.02082629516
 31
0.0
  0
LINE
  5
59F
  8
0
 62
     3
 10
-1879.068943021714
 20
409.7279330763476
 30
0.0
 11
-1919.068943021713
 21
438.0122043238088
 31
0.0
  0
LINE
  5
5A0
  8
0
 62
     3
 10
-1919.068943021713
 20
437.3050975426231
 30
0.0
 11
-1879.068943021714
 21
409.0208262951609
 31
0.0
  0
LINE
  5
5A1
  8
0
 62
     3
 10
-1920.068943021713
 20
449.3259128227919
 30
0.0
 11
-1920.068943021713
 21
424.3259128227919
 31
0.0
  0
LINE
  5
5A2
  8
0
 62
     3
 10
-1920.068943021713
 20
449.3259128227919
 30
0.0
 11
179.9310569782857
 21
449.3259128227919
 31
0.0
  0
LINE
  5
5A3
  8
0
 62
     3
 10
139.9310569782857
 20
408.02082629516
 30
0.0
 11
-1880.068943021714
 21
408.02082629516
 31
0.0
  0
LINE
  5
5A4
  8
0
 62
     3
 10
-1919.068943021713
 20
449.3259128227919
 30
0.0
 11
-1919.068943021713
 21
424.3259128227919
 31
0.0
  0
LINE
  5
5A5
  8
0
 62
     3
 10
-1920.068943021713
 20
424.3259128227919
 30
0.0
 11
-1919.068943021713
 21
424.3259128227919
 31
0.0
  0
LINE
  5
5A6
  8
0
 62
     3
 10
179.9310569782857
 20
424.3259128227919
 30
0.0
 11
178.9310569782857
 21
424.3259128227919
 31
0.0
  0
LINE
  5
5A7
  8
0
 62
     3
 10
138.9310569782857
 20
409.7279330763476
 30
0.0
 11
178.9310569782857
 21
438.0122043238088
 31
0.0
  0
LINE
  5
5A8
  8
0
 62
     3
 10
178.9310569782857
 20
437.3050975426231
 30
0.0
 11
138.9310569782857
 21
409.0208262951609
 31
0.0
  0
LINE
  5
5A9
  8
0
 62
     3
 10
179.9310569782857
 20
449.3259128227919
 30
0.0
 11
179.9310569782857
 21
424.3259128227919
 31
0.0
  0
LINE
  5
5AA
  8
0
 62
     3
 10
178.9310569782857
 20
449.3259128227919
 30
0.0
 11
178.9310569782857
 21
424.3259128227919
 31
0.0
  0
CIRCLE
  5
5AB
  8
0
 62
     3
 10
1005.699716419519
 20
315.8259128227901
 30
0.0
 40
2.5
  0
CIRCLE
  5
5AC
  8
0
 62
     3
 10
1005.699716419519
 20
385.8259128227901
 30
0.0
 40
2.5
  0
LINE
  5
5AD
  8
0
 62
     3
 10
982.9997164195188
 20
-624.1740871772099
 30
0.0
 11
1030.699716419523
 21
-624.1740871772099
 31
0.0
  0
LINE
  5
5AE
  8
0
 62
     3
 10
982.6997164195177
 20
-624.1740871772099
 30
0.0
 11
982.6997164195177
 21
305.8259128227905
 31
0.0
  0
LINE
  5
5AF
  8
0
 62
     3
 10
1030.699716419523
 20
-624.1740871772099
 30
0.0
 11
1030.699716419524
 21
305.8259128227903
 31
0.0
  0
CIRCLE
  5
5B0
  8
0
 62
     3
 10
1010.699716419518
 20
335.8259128227829
 30
0.0
 40
2.499999999999998
  0
CIRCLE
  5
5B1
  8
0
 62
     3
 10
1001.941346301233
 20
335.717284283838
 30
0.0
 40
2.499999999999998
  0
CIRCLE
  5
5B2
  8
0
 62
     3
 10
1247.999716419556
 20
436.8259128227919
 30
0.0
 40
3.499999999999997
  0
LINE
  5
5B3
  8
0
 62
     3
 10
1261.999716419556
 20
449.3259128227919
 30
0.0
 11
1261.999716419556
 21
424.3259128227909
 31
0.0
  0
ARC
  5
5B4
  8
0
 62
     3
 10
1349.271794358199
 20
409.02082629516
 30
0.0
 40
1.0
 50
225.0000000000046
 51
405.0000000000046
  0
LINE
  5
5B5
  8
0
 62
     3
 10
1348.564687577012
 20
408.3137195139734
 30
0.0
 11
1340.574380949604
 21
416.3040261413816
 31
0.0
  0
LINE
  5
5B6
  8
0
 62
     3
 10
1340.574380949604
 20
416.3040261413807
 30
0.0
 11
1341.28148773079
 21
417.0111329225674
 31
0.0
  0
LINE
  5
5B7
  8
0
 62
     3
 10
1349.271794358199
 20
409.02082629516
 30
0.0
 11
1315.531678988022
 21
442.7609416653358
 31
0.0
  0
LINE
  5
5B8
  8
0
 62
     3
 10
1316.238785769207
 20
443.4680484465234
 30
0.0
 11
1349.978901139386
 21
409.7279330763449
 31
0.0
  0
ARC
  5
5B9
  8
0
 62
     3
 10
1302.096650145476
 20
429.3259128227919
 30
0.0
 40
20.0
 50
44.99999999999977
 51
90.00000000000001
  0
ARC
  5
5BA
  8
0
 62
     3
 10
1302.096650145477
 20
429.3259128227919
 30
0.0
 40
19.0
 50
44.99999999999855
 51
90.00000000000001
  0
LINE
  5
5BB
  8
0
 62
     3
 10
1302.096650145477
 20
448.3259128227919
 30
0.0
 11
1261.999716419556
 21
448.3259128227919
 31
0.0
  0
LINE
  5
5BC
  8
0
 62
     3
 10
673.9027826936367
 20
449.3259128227919
 30
0.0
 11
1302.096650145476
 21
449.3259128227919
 31
0.0
  0
LINE
  5
5BD
  8
0
 62
     3
 10
713.9997164195561
 20
424.3259128227909
 30
0.0
 11
1261.999716419556
 21
424.3259128227909
 31
0.0
  0
CIRCLE
  5
5BE
  8
0
 62
     3
 10
727.9997164195561
 20
436.8259128227909
 30
0.0
 40
3.499999999999997
  0
LINE
  5
5BF
  8
0
 62
     3
 10
713.9997164195561
 20
449.3259128227919
 30
0.0
 11
713.9997164195561
 21
424.3259128227909
 31
0.0
  0
ARC
  5
5C0
  8
0
 62
     3
 10
626.7276384809143
 20
409.02082629516
 30
0.0
 40
1.0
 50
134.9999999999954
 51
314.9999999999954
  0
LINE
  5
5C1
  8
0
 62
     3
 10
627.4347452621009
 20
408.3137195139734
 30
0.0
 11
635.4250518895083
 21
416.3040261413807
 31
0.0
  0
LINE
  5
5C2
  8
0
 62
     3
 10
635.4250518895083
 20
416.3040261413807
 30
0.0
 11
634.7179451083225
 21
417.0111329225674
 31
0.0
  0
LINE
  5
5C3
  8
0
 62
     3
 10
626.7276384809143
 20
409.02082629516
 30
0.0
 11
660.46775385109
 21
442.7609416653358
 31
0.0
  0
LINE
  5
5C4
  8
0
 62
     3
 10
659.7606470699052
 20
443.4680484465234
 30
0.0
 11
626.0205316997276
 21
409.7279330763449
 31
0.0
  0
ARC
  5
5C5
  8
0
 62
     3
 10
673.9027826936367
 20
429.3259128227919
 30
0.0
 40
20.0
 50
90.00000000000001
 51
135.0000000000002
  0
ARC
  5
5C6
  8
0
 62
     3
 10
673.9027826936349
 20
429.3259128227919
 30
0.0
 40
19.0
 50
90.00000000000001
 51
135.0000000000015
  0
LINE
  5
5C7
  8
0
 62
     3
 10
713.9997164195561
 20
448.3259128227919
 30
0.0
 11
673.9027826936349
 21
448.3259128227919
 31
0.0
  0
LINE
  5
5C8
  8
0
 62
     3
 10
65.4310569769724
 20
-624.1740871772099
 30
0.0
 11
-4.568943023075804
 21
-624.1740871772099
 31
0.0
  0
LINE
  5
5C9
  8
0
 62
     3
 10
65.4310569769724
 20
-624.1740871772099
 30
0.0
 11
65.4310569769724
 21
408.02082629516
 31
0.0
  0
LINE
  5
5CA
  8
0
 62
     3
 10
-4.568943023075804
 20
-624.1740871772099
 30
0.0
 11
-4.568943023075804
 21
408.02082629516
 31
0.0
  0
LINE
  5
5CB
  8
0
 62
     3
 10
-1805.568943020401
 20
-624.1740871772099
 30
0.0
 11
-1735.568943020353
 21
-624.1740871772099
 31
0.0
  0
LINE
  5
5CC
  8
0
 62
     3
 10
-1805.568943020401
 20
-624.1740871772099
 30
0.0
 11
-1805.568943020401
 21
408.02082629516
 31
0.0
  0
LINE
  5
5CD
  8
0
 62
     3
 10
-1735.568943020353
 20
-624.1740871772099
 30
0.0
 11
-1735.568943020353
 21
408.02082629516
 31
0.0
  0
LINE
  5
5CE
  8
LAYER0015
  6
CENTER
 62
     4
 10
-870.0689430217143
 20
325.5548544618176
 30
0.0
 11
-870.0689430217143
 21
505.6222197312787
 31
0.0
  0
LINE
  5
5CF
  8
LAYER0015
  6
CENTER
 62
     4
 10
-8.720550840229066
 20
430.3259128227919
 30
0.0
 11
-31.41733520443279
 21
430.3259128227919
 31
0.0
  0
LINE
  5
5D0
  8
LAYER0015
  6
CENTER
 62
     4
 10
-20.06894302233093
 20
441.6743050048938
 30
0.0
 11
-20.06894302233093
 21
418.9775206406899
 31
0.0
  0
LINE
  5
5D1
  8
LAYER0015
  6
CENTER
 62
     4
 10
39.78111142104444
 20
430.3259128227919
 30
0.0
 11
20.08100253417547
 21
430.3259128227919
 31
0.0
  0
LINE
  5
5D2
  8
LAYER0015
  6
CENTER
 62
     4
 10
29.93105697760996
 20
440.1759672662263
 30
0.0
 11
29.93105697760996
 21
420.4758583793574
 31
0.0
  0
LINE
  5
5D3
  8
LAYER0015
  6
CENTER
 62
     4
 10
89.91542457993137
 20
430.3259128227919
 30
0.0
 11
69.94668937540678
 21
430.3259128227919
 31
0.0
  0
LINE
  5
5D4
  8
LAYER0015
  6
CENTER
 62
     4
 10
79.93105697766907
 20
440.3102804250542
 30
0.0
 11
79.93105697766907
 21
420.3415452205296
 31
0.0
  0
LINE
  5
5D5
  8
LAYER0015
  6
CENTER
 62
     4
 10
-1731.417335203199
 20
430.3259128227919
 30
0.0
 11
-1708.720550838996
 21
430.3259128227919
 31
0.0
  0
LINE
  5
5D6
  8
LAYER0015
  6
CENTER
 62
     4
 10
-1720.068943021097
 20
441.6743050048938
 30
0.0
 11
-1720.068943021097
 21
418.9775206406899
 31
0.0
  0
LINE
  5
5D7
  8
LAYER0015
  6
CENTER
 62
     4
 10
-1779.918997464473
 20
430.3259128227919
 30
0.0
 11
-1760.218888577604
 21
430.3259128227919
 31
0.0
  0
LINE
  5
5D8
  8
LAYER0015
  6
CENTER
 62
     4
 10
-1770.068943021038
 20
440.1759672662263
 30
0.0
 11
-1770.068943021038
 21
420.4758583793574
 31
0.0
  0
LINE
  5
5D9
  8
LAYER0015
  6
CENTER
 62
     4
 10
-1830.05331062336
 20
430.3259128227919
 30
0.0
 11
-1810.084575418835
 21
430.3259128227919
 31
0.0
  0
LINE
  5
5DA
  8
LAYER0015
  6
CENTER
 62
     4
 10
-1820.068943021097
 20
440.3102804250542
 30
0.0
 11
-1820.068943021097
 21
420.3415452205296
 31
0.0
  0
TEXT
  5
5DB
  8
LAYER0015
 62
     2
 10
1372.477033979294
 20
-1468.992218192149
 30
0.0
 40
60.0
  1
RF(両流れ）
 41
0.6894409937888198
  7
FDASTYLE0
 72
     5
 11
1705.477033979294
 21
-1468.992218192149
 31
0.0
  0
LINE
  5
5DC
  8
ZUWAKU
 62
     4
 10
1237.999999999985
 20
-1233.000000000023
 30
0.0
 11
2425.999999999985
 21
-1233.000000000026
 31
0.0
  0
LINE
  5
5DD
  8
ZUWAKU
 62
     4
 10
1237.999999999985
 20
-1173.000000000023
 30
0.0
 11
2425.999999999985
 21
-1173.000000000027
 31
0.0
  0
LINE
  5
5DE
  8
ZUWAKU
 62
     4
 10
1237.999999999985
 20
-1113.000000000024
 30
0.0
 11
2425.999999999985
 21
-1113.000000000027
 31
0.0
  0
LINE
  5
5DF
  8
ZUWAKU
 62
     4
 10
1237.999999999985
 20
-1053.000000000024
 30
0.0
 11
2425.999999999985
 21
-1053.000000000028
 31
0.0
  0
LINE
  5
5E0
  8
ZUWAKU
 62
     4
 10
1237.999999999985
 20
-993.0000000000242
 30
0.0
 11
2425.999999999985
 21
-993.000000000028
 31
0.0
  0
TEXT
  5
5E1
  8
ZUWAKU
 62
     4
 10
1370.816538486488
 20
-1285.039883439242
 30
0.0
 40
42.0
  1
屋根組立　
 41
0.6666666666666666
  7
FDASTYLE0
 72
     5
 11
1538.816538486488
 21
-1285.039883439242
 31
0.0
  0
TEXT
  5
5E2
  8
ZUWAKU
 62
     4
 10
1724.581223887926
 20
-1285.039883439243
 30
0.0
 40
42.0
  1
SGHC 
 41
0.8
  7
FDASTYLE0
 72
     5
 11
1892.581223887926
 21
-1285.039883439243
 31
0.0
  0
TEXT
  5
5E3
  8
ZUWAKU
 62
     4
 10
1942.528911982587
 20
-1285.039883439243
 30
0.0
 40
42.0
  1
1 
 41
0.8000000000000005
  7
FDASTYLE0
 72
     5
 11
2009.728911982587
 21
-1285.039883439243
 31
0.0
  0
TEXT
  5
5E4
  8
ZUWAKU
 62
     4
 10
2042.528911982584
 20
-1285.039883439244
 30
0.0
 40
42.0
  1
粉体焼付塗装　ｔ1.0
 41
0.6984126984126982
  7
FDASTYLE0
 72
     5
 11
2412.128911982584
 21
-1285.039883439244
 31
0.0
  0
TEXT
  5
5E5
  8
ZUWAKU
 62
     4
 10
2042.528911982584
 20
-1225.039883439245
 30
0.0
 40
42.0
  1
粉体焼付塗装　ｔ2.0
 41
0.6984126984126982
  7
FDASTYLE0
 72
     5
 11
2412.128911982584
 21
-1225.039883439245
 31
0.0
  0
TEXT
  5
5E6
  8
ZUWAKU
 62
     4
 10
1282.528911982586
 20
-1225.039883439242
 30
0.0
 40
42.0
  1
2
 41
0.7999999999999978
  7
FDASTYLE0
 72
     5
 11
1316.128911982586
 21
-1225.039883439242
 31
0.0
  0
TEXT
  5
5E7
  8
ZUWAKU
 62
     4
 10
1370.816538486488
 20
-1225.039883439242
 30
0.0
 40
42.0
  1
脚　組立　
 41
0.6666666666666666
  7
FDASTYLE0
 72
     5
 11
1538.816538486488
 21
-1225.039883439242
 31
0.0
  0
TEXT
  5
5E8
  8
ZUWAKU
 62
     4
 10
1904.314292473293
 20
-1225.039883439244
 30
0.0
 40
42.0
  1
左右各1 
 41
0.5803571428571429
  7
FDASTYLE0
 72
     5
 11
2040.814292473293
 21
-1225.039883439244
 31
0.0
  0
TEXT
  5
5E9
  8
ZUWAKU
 62
     4
 10
1282.528911982586
 20
-1165.039883439242
 30
0.0
 40
42.0
  1
3
 41
0.7999999999999978
  7
FDASTYLE0
 72
     5
 11
1316.128911982586
 21
-1165.039883439242
 31
0.0
  0
TEXT
  5
5EA
  8
ZUWAKU
 62
     4
 10
2042.528911982584
 20
-1165.039883439245
 30
0.0
 40
42.0
  1
M6　クロメートメッキ　
 41
0.6428571428571429
  7
FDASTYLE0
 72
     5
 11
2420.528911982584
 21
-1165.039883439245
 31
0.0
  0
TEXT
  5
5EB
  8
ZUWAKU
 62
     4
 10
1370.816538486488
 20
-1165.039883439242
 30
0.0
 40
42.0
  1
六角ボルト　
 41
0.6666666666666664
  7
FDASTYLE0
 72
     5
 11
1572.416538486488
 21
-1165.039883439242
 31
0.0
  0
TEXT
  5
5EC
  8
ZUWAKU
 62
     4
 10
1942.528911982587
 20
-1165.039883439244
 30
0.0
 40
42.0
  1
4 
 41
0.6499999999999989
  7
FDASTYLE0
 72
     5
 11
1997.128911982587
 21
-1165.039883439244
 31
0.0
  0
TEXT
  5
5ED
  8
ZUWAKU
 62
     4
 10
1724.581223887926
 20
-1225.039883439243
 30
0.0
 40
42.0
  1
SGHC 
 41
0.8
  7
FDASTYLE0
 72
     5
 11
1892.581223887926
 21
-1225.039883439243
 31
0.0
  0
TEXT
  5
5EE
  8
ZUWAKU
 62
     4
 10
1724.581223887926
 20
-1165.039883439243
 30
0.0
 40
42.0
  1
SS400
 41
0.8
  7
FDASTYLE0
 72
     5
 11
1892.581223887926
 21
-1165.039883439243
 31
0.0
  0
TEXT
  5
5EF
  8
ZUWAKU
 62
     4
 10
1282.528911982586
 20
-1105.039883439243
 30
0.0
 40
42.0
  1
4
 41
0.7999999999999978
  7
FDASTYLE0
 72
     5
 11
1316.128911982586
 21
-1105.039883439243
 31
0.0
  0
TEXT
  5
5F0
  8
ZUWAKU
 62
     4
 10
1370.816538486488
 20
-1105.039883439243
 30
0.0
 40
42.0
  1
エア抜き管（短）
 41
0.541666666666667
  7
FDASTYLE0
 72
     5
 11
1589.216538486488
 21
-1105.039883439243
 31
0.0
  0
TEXT
  5
5F1
  8
ZUWAKU
 62
     4
 10
1724.581223887926
 20
-1105.039883439243
 30
0.0
 40
42.0
  1
STK
 41
0.7999999999999996
  7
FDASTYLE0
 72
     5
 11
1825.381223887925
 21
-1105.039883439243
 31
0.0
  0
TEXT
  5
5F2
  8
ZUWAKU
 62
     4
 10
1942.528911982587
 20
-1105.039883439245
 30
0.0
 40
42.0
  1
1
 41
0.6499999999999989
  7
FDASTYLE0
 72
     5
 11
1969.828911982587
 21
-1105.039883439245
 31
0.0
  0
TEXT
  5
5F3
  8
ZUWAKU
 62
     4
 10
2042.528911982584
 20
-1105.039883439245
 30
0.0
 40
42.0
  1
粉体焼付塗装
 41
0.625
  7
FDASTYLE0
 72
     5
 11
2231.528911982584
 21
-1105.039883439245
 31
0.0
  0
TEXT
  5
5F4
  8
ZUWAKU
 62
     4
 10
1190.003264972593
 20
-1045.039883439243
 30
0.0
 40
42.0
  1
※
 41
0.6666666666666649
  7
FDASTYLE0
 72
     5
 11
1223.603264972593
 21
-1045.039883439243
 31
0.0
  0
TEXT
  5
5F5
  8
ZUWAKU
 62
     4
 10
1282.528911982586
 20
-1045.039883439243
 30
0.0
 40
42.0
  1
5
 41
0.7999999999999978
  7
FDASTYLE0
 72
     5
 11
1316.128911982586
 21
-1045.039883439243
 31
0.0
  0
TEXT
  5
5F6
  8
ZUWAKU
 62
     4
 10
1370.816538486488
 20
-1045.039883439243
 30
0.0
 40
42.0
  1
六角ボルト+平座+ナット
 41
0.5571428571428569
  7
FDASTYLE0
 72
     5
 11
1698.416538486488
 21
-1045.039883439243
 31
0.0
  0
TEXT
  5
5F7
  8
ZUWAKU
 62
     4
 10
1724.581223887926
 20
-1045.039883439244
 30
0.0
 40
42.0
  1
SS400
 41
0.8
  7
FDASTYLE0
 72
     5
 11
1892.581223887926
 21
-1045.039883439244
 31
0.0
  0
TEXT
  5
5F8
  8
ZUWAKU
 62
     4
 10
1942.528911982587
 20
-1045.039883439245
 30
0.0
 40
42.0
  1
各2
 41
0.5909090909090899
  7
FDASTYLE0
 72
     5
 11
1997.128911982587
 21
-1045.039883439245
 31
0.0
  0
TEXT
  5
5F9
  8
ZUWAKU
 62
     4
 10
2042.528911982584
 20
-1045.039883439245
 30
0.0
 40
42.0
  1
M12　クロメートメッキ　
 41
0.65
  7
FDASTYLE0
 72
     5
 11
2452.028911982584
 21
-1045.039883439245
 31
0.0
  0
TEXT
  5
5FA
  8
ZUWAKU
 62
     4
 10
1190.003264972593
 20
-1105.039883439243
 30
0.0
 40
42.0
  1
＠
 41
0.6666666666666649
  7
FDASTYLE0
 72
     5
 11
1223.603264972593
 21
-1105.039883439243
 31
0.0
  0
INSERT
  5
5FB
  8
ZUWAKU
  6
CONTINUOUS
  2
DC_GROUP_1
 10
0.0
 20
0.0
 30
0.0
  0
INSERT
  5
5FC
  8
ZUWAKU
  6
CONTINUOUS
  2
DC_GROUP_2
 10
0.0
 20
0.0
 30
0.0
  0
INSERT
  5
5FD
  8
ZUWAKU
  6
CONTINUOUS
  2
DC_GROUP_3
 10
0.0
 20
0.0
 30
0.0
  0
INSERT
  5
5FE
  8
ZUWAKU
  6
CONTINUOUS
  2
DC_GROUP_21
 10
0.0
 20
0.0
 30
0.0
  0
TEXT
  5
5FF
  8
LAYER0015
 62
     4
 10
1556.686331031166
 20
-1687.671673247551
 30
0.0
 40
52.5
  1
アイボリー色
 41
0.6666666666666666
  7
FDASTYLE0
 72
     5
 11
1808.686331031166
 21
-1687.671673247551
 31
0.0
  0
LINE
  5
600
  8
LAYER0016
  6
CENTER
 62
     4
 10
1911.187886810931
 20
-389.2450836070358
 30
0.0
 11
1911.187886810863
 21
-414.0465119724429
 31
0.0
  0
ARC
  5
601
  8
LAYER0016
 62
     3
 10
1992.883886811145
 20
-302.6218243250233
 30
0.0
 40
7.104000000000001
 50
0.0
 51
90.0
  0
INSERT
  5
602
  8
LAYER0016
  6
CONTINUOUS
  2
DC_GROUP_4
 10
0.0
 20
0.0
 30
0.0
  0
INSERT
  5
603
  8
LAYER0031
  6
CONTINUOUS
  2
DA_IMAGEDIMGROUP_11
 10
0.0
 20
0.0
 30
0.0
  0
INSERT
  5
604
  8
LAYER0031
  6
CONTINUOUS
  2
DA_IMAGEDIMGROUP_12
 10
0.0
 20
0.0
 30
0.0
  0
INSERT
  5
605
  8
LAYER0031
  6
CONTINUOUS
  2
DA_IMAGEDIMGROUP_13
 10
0.0
 20
0.0
 30
0.0
  0
INSERT
  5
606
  8
0
  6
CONTINUOUS
  2
DC_GROUP_7
 10
0.0
 20
0.0
 30
0.0
  0
INSERT
  5
607
  8
0
  6
CONTINUOUS
  2
DC_GROUP_11
 10
0.0
 20
0.0
 30
0.0
  0
INSERT
  5
608
  8
0
  6
CONTINUOUS
  2
DC_GROUP_16
 10
0.0
 20
0.0
 30
0.0
  0
INSERT
  5
609
  8
0
  6
CONTINUOUS
  2
DC_GROUP_22
 10
0.0
 20
0.0
 30
0.0
  0
INSERT
  5
60A
  8
0
  6
CONTINUOUS
  2
DC_GROUP_23
 10
0.0
 20
0.0
 30
0.0
  0
INSERT
  5
60B
  8
0
  6
CONTINUOUS
  2
DC_GROUP_24
 10
0.0
 20
0.0
 30
0.0
  0
INSERT
  5
60C
  8
0
  6
CONTINUOUS
  2
DC_GROUP_25
 10
0.0
 20
0.0
 30
0.0
  0
INSERT
  5
60D
  8
0
  6
CONTINUOUS
  2
DC_GROUP_26
 10
0.0
 20
0.0
 30
0.0
  0
INSERT
  5
60E
  8
0
  6
CONTINUOUS
  2
DC_GROUP_27
 10
0.0
 20
0.0
 30
0.0
  0
INSERT
  5
60F
  8
0
  6
CONTINUOUS
  2
DC_GROUP_28
 10
0.0
 20
0.0
 30
0.0
  0
INSERT
  5
610
  8
0
  6
CONTINUOUS
  2
DC_GROUP_29
 10
0.0
 20
0.0
 30
0.0
  0
INSERT
  5
611
  8
0
  6
CONTINUOUS
  2
DC_GROUP_30
 10
0.0
 20
0.0
 30
0.0
  0
INSERT
  5
612
  8
0
  6
CONTINUOUS
  2
DC_GROUP_31
 10
0.0
 20
0.0
 30
0.0
  0
INSERT
  5
613
  8
0
  6
CONTINUOUS
  2
DC_GROUP_32
 10
0.0
 20
0.0
 30
0.0
  0
INSERT
  5
614
  8
0
  6
CONTINUOUS
  2
DC_GROUP_33
 10
0.0
 20
0.0
 30
0.0
  0
INSERT
  5
615
  8
0
  6
CONTINUOUS
  2
DC_GROUP_34
 10
0.0
 20
0.0
 30
0.0
  0
INSERT
  5
616
  8
0
  6
CONTINUOUS
  2
DC_GROUP_35
 10
0.0
 20
0.0
 30
0.0
  0
INSERT
  5
617
  8
0
  6
CONTINUOUS
  2
DC_GROUP_36
 10
0.0
 20
0.0
 30
0.0
  0
INSERT
  5
618
  8
0
  6
CONTINUOUS
  2
DC_GROUP_37
 10
0.0
 20
0.0
 30
0.0
  0
INSERT
  5
619
  8
0
  6
CONTINUOUS
  2
DC_GROUP_38
 10
0.0
 20
0.0
 30
0.0
  0
INSERT
  5
61A
  8
0
  6
CONTINUOUS
  2
DC_GROUP_39
 10
0.0
 20
0.0
 30
0.0
  0
INSERT
  5
61B
  8
0
  6
CONTINUOUS
  2
DC_GROUP_40
 10
0.0
 20
0.0
 30
0.0
  0
INSERT
  5
61C
  8
0
  6
CONTINUOUS
  2
DC_GROUP_41
 10
0.0
 20
0.0
 30
0.0
  0
INSERT
  5
61D
  8
0
  6
CONTINUOUS
  2
DC_GROUP_42
 10
0.0
 20
0.0
 30
0.0
  0
INSERT
  5
61E
  8
0
  6
CONTINUOUS
  2
DC_GROUP_43
 10
0.0
 20
0.0
 30
0.0
  0
INSERT
  5
61F
  8
0
  6
CONTINUOUS
  2
DC_GROUP_44
 10
0.0
 20
0.0
 30
0.0
  0
INSERT
  5
620
  8
0
  6
CONTINUOUS
  2
DC_GROUP_45
 10
0.0
 20
0.0
 30
0.0
  0
INSERT
  5
621
  8
0
  6
CONTINUOUS
  2
DC_GROUP_46
 10
0.0
 20
0.0
 30
0.0
  0
INSERT
  5
622
  8
0
  6
CONTINUOUS
  2
DC_GROUP_47
 10
0.0
 20
0.0
 30
0.0
  0
INSERT
  5
623
  8
0
  6
CONTINUOUS
  2
DC_GROUP_48
 10
0.0
 20
0.0
 30
0.0
  0
INSERT
  5
624
  8
0
  6
CONTINUOUS
  2
DC_GROUP_49
 10
0.0
 20
0.0
 30
0.0
  0
LINE
  5
625
  8
0
  6
CENTER
 62
     4
 10
970.4646776511531
 20
-512.6740871772099
 30
0.0
 11
992.3919802353707
 21
-512.6740871772099
 31
0.0
  0
LINE
  5
626
  8
0
  6
CENTER
 62
     4
 10
970.4646776511531
 20
-57.67408717720983
 30
0.0
 11
992.3919802353707
 21
-57.67408717720983
 31
0.0
  0
LINE
  5
627
  8
0
  6
CENTER
 62
     4
 10
970.4646776511531
 20
-97.67408717720983
 30
0.0
 11
992.3919802353707
 21
-97.67408717720983
 31
0.0
  0
LINE
  5
628
  8
0
  6
CENTER
 62
     4
 10
970.4646776511531
 20
-137.6740871772098
 30
0.0
 11
992.3919802353707
 21
-137.6740871772098
 31
0.0
  0
LINE
  5
629
  8
0
  6
CENTER
 62
     4
 10
970.4646776511531
 20
-552.6740871772099
 30
0.0
 11
992.3919802353707
 21
-552.6740871772099
 31
0.0
  0
LINE
  5
62A
  8
0
  6
CENTER
 62
     4
 10
970.4646776511531
 20
-592.6740871772099
 30
0.0
 11
992.3919802353707
 21
-592.6740871772099
 31
0.0
  0
LINE
  5
62B
  8
0
  6
CENTER
 62
     4
 10
970.4646776511531
 20
-397.6740871772098
 30
0.0
 11
992.3919802353707
 21
-397.6740871772098
 31
0.0
  0
TEXT
  5
62C
  8
ZUWAKU
 62
   190
 10
-2183.101685393258
 20
-1644.825842696629
 30
0.0
 40
35.99999999999997
  1
改訂
 41
0.6666666666666661
  7
FDASTYLE0
 72
     5
 11
-2125.501685393258
 21
-1644.825842696629
 31
0.0
  0
TEXT
  5
62D
  8
ZUWAKU
 62
   190
 10
-2039.101685393258
 20
-1644.825842696629
 30
0.0
 40
35.99999999999997
  1
2011.7.20　　誤記訂正　　岡田
 41
0.7238095238095238
  7
FDASTYLE0
 72
     5
 11
-1491.901685393258
 21
-1644.825842696629
 31
0.0
  0
LINE
  5
62E
  8
ZUWAKU
 62
   190
 10
-2191.521097394353
 20
-1655.625842696629
 30
0.0
 11
-1457.856149890209
 21
-1655.625842696629
 31
0.0
  0
LINE
  5
62F
  8
LAYER0010
 62
     3
 10
738.7997164195335
 20
418.3259128227891
 30
0.0
 11
738.7997164195335
 21
407.5259128227899
 31
0.0
  0
ARC
  5
630
  8
LAYER0010
 62
     3
 10
739.9997164195324
 20
407.5259128227899
 30
0.0
 40
1.200000000000045
 50
180.0000000000023
 51
360.0000000000023
  0
LINE
  5
631
  8
LAYER0010
 62
     3
 10
738.7997164195335
 20
418.3259128227891
 30
0.0
 11
739.9997164195324
 21
418.3259128227909
 31
0.0
  0
LINE
  5
632
  8
LAYER0010
 62
     3
 10
830.7597164195045
 20
413.3259128227909
 30
0.0
 11
839.8997164195057
 21
413.3259128227909
 31
0.0
  0
LINE
  5
633
  8
LAYER0010
 62
     3
 10
830.7297164195056
 20
414.5259128227917
 30
0.0
 11
839.8997164195057
 21
414.5259128227917
 31
0.0
  0
LINE
  5
634
  8
LAYER0010
 62
     3
 10
839.8997164195057
 20
413.3259128227928
 30
0.0
 11
839.8997164195057
 21
414.5259128227917
 31
0.0
  0
ARC
  5
635
  8
LAYER0010
 62
     3
 10
830.7297164195056
 20
416.2559128227912
 30
0.0
 40
1.730000000000001
 50
180.0000000000045
 51
270.0000000000046
  0
ARC
  5
636
  8
LAYER0010
 62
     3
 10
830.7597164195036
 20
416.2859128227919
 30
0.0
 40
2.96
 50
180.0000000000001
 51
270.0000000000046
  0
LINE
  5
637
  8
LAYER0010
 62
     3
 10
827.7997164195035
 20
424.3259128227909
 30
0.0
 11
827.7997164195035
 21
416.2859128227919
 31
0.0
  0
LINE
  5
638
  8
LAYER0010
 62
     3
 10
828.9997164195052
 20
424.3259128227909
 30
0.0
 11
828.9997164195052
 21
416.2559128227912
 31
0.0
  0
LINE
  5
639
  8
LAYER0010
 62
     3
 10
741.1997164195323
 20
424.3259128227909
 30
0.0
 11
741.1997164195323
 21
407.5259128227899
 31
0.0
  0
LINE
  5
63A
  8
LAYER0010
 62
     3
 10
739.9997164195315
 20
424.3259128227909
 30
0.0
 11
739.9997164195324
 21
407.5259128227899
 31
0.0
  0
LINE
  5
63B
  8
LAYER0010
 62
     3
 10
1232.599716419518
 20
418.3259128227891
 30
0.0
 11
1232.599716419518
 21
407.5259128227899
 31
0.0
  0
ARC
  5
63C
  8
LAYER0010
 62
     3
 10
1231.399716419518
 20
407.5259128227899
 30
0.0
 40
1.200000000000045
 50
179.9999999999977
 51
359.9999999999977
  0
LINE
  5
63D
  8
LAYER0010
 62
     3
 10
1232.599716419518
 20
418.3259128227891
 30
0.0
 11
1231.399716419518
 21
418.3259128227909
 31
0.0
  0
LINE
  5
63E
  8
LAYER0010
 62
     3
 10
1140.639716419547
 20
413.3259128227909
 30
0.0
 11
1131.499716419545
 21
413.3259128227909
 31
0.0
  0
LINE
  5
63F
  8
LAYER0010
 62
     3
 10
1140.669716419545
 20
414.5259128227917
 30
0.0
 11
1131.499716419546
 21
414.5259128227917
 31
0.0
  0
LINE
  5
640
  8
LAYER0010
 62
     3
 10
1131.499716419546
 20
413.3259128227928
 30
0.0
 11
1131.499716419546
 21
414.5259128227917
 31
0.0
  0
ARC
  5
641
  8
LAYER0010
 62
     3
 10
1140.669716419546
 20
416.2559128227912
 30
0.0
 40
1.730000000000001
 50
269.9999999999955
 51
359.9999999999955
  0
ARC
  5
642
  8
LAYER0010
 62
     3
 10
1140.639716419548
 20
416.2859128227919
 30
0.0
 40
2.96
 50
269.9999999999955
 51
359.9999999999998
  0
LINE
  5
643
  8
LAYER0010
 62
     3
 10
1231.399716419519
 20
424.3259128227909
 30
0.0
 11
1231.399716419519
 21
407.5259128227899
 31
0.0
  0
LINE
  5
644
  8
LAYER0010
 62
     3
 10
1230.199716419519
 20
424.3259128227909
 30
0.0
 11
1230.199716419519
 21
407.5259128227899
 31
0.0
  0
LINE
  5
645
  8
LAYER0010
 62
     3
 10
1143.599716419548
 20
424.3259128227909
 30
0.0
 11
1143.599716419548
 21
416.2859128227919
 31
0.0
  0
LINE
  5
646
  8
LAYER0010
 62
     3
 10
1142.399716419546
 20
424.3259128227909
 30
0.0
 11
1142.399716419546
 21
416.2559128227912
 31
0.0
  0
VIEWPORT
  5
32
 67
     1
  8
0
 10
78.99999999998636
 20
5.164163376237866
 30
0.0
 40
14082.0
 41
10157.01501974274
 68
     1
 69
     1
1001
ACAD
1000
MVIEW
1002
{
1070
    16
1010
0.0
1020
0.0
1030
0.0
1020
0.0
1030
0.0
1010
0.0
1020
0.0
1030
1.0
1020
0.0
1030
1.0
1040
0.0
1040
10157.01501974274
1040
78.99999999998636
1040
5.164163376237866
1040
50.0
1040
0.0
1040
0.0
1070
     0
1070
   100
1070
     0
1070
     1
1070
     0
1070
     0
1070
     0
1070
     0
1040
0.0
1040
0.0
1040
0.0
1040
0.5
1040
0.5
1040
0.0
1040
0.0
1070
     0
1002
{
1002
}
1002
}
  0
ENDSEC
  0
EOF
