  0
SECTION
  2
HEADER
  9
$ACADVER
  1
AC1009
  9
$DWGCODEPAGE
  3
ansi_932
  9
$INSBASE
 10
0.0
 20
0.0
 30
0.0
  9
$EXTMIN
 10
-8687.500000000016
 20
-6268.750000000036
 30
0.0
  9
$EXTMAX
 10
8869.999999999982
 20
6259.999999999969
 30
0.0
  9
$LIMMIN
 10
-3150.0
 20
-2227.5
  9
$LIMMAX
 10
3150.0
 20
2227.5
  9
$ORTHOMODE
 70
     0
  9
$REGENMODE
 70
     1
  9
$FILLMODE
 70
     1
  9
$QTEXTMODE
 70
     0
  9
$MIRRTEXT
 70
     1
  9
$DRAGMODE
 70
     2
  9
$LTSCALE
 40
15.0
  9
$OSMODE
 70
    37
  9
$ATTMODE
 70
     1
  9
$TEXTSIZE
 40
0.2
  9
$TRACEWID
 40
0.05
  9
$TEXTSTYLE
  7
STANDARD
  9
$CLAYER
  8
0
  9
$CELTYPE
  6
BYLAYER
  9
$CECOLOR
 62
   256
  9
$DIMSCALE
 40
1.0
  9
$DIMASZ
 40
37.5
  9
$DIMEXO
 40
0.0625
  9
$DIMDLI
 40
0.38
  9
$DIMRND
 40
0.0
  9
$DIMDLE
 40
0.0
  9
$DIMEXE
 40
0.18
  9
$DIMTP
 40
0.0
  9
$DIMTM
 40
0.0
  9
$DIMTXT
 40
0.18
  9
$DIMCEN
 40
0.09
  9
$DIMTSZ
 40
0.0
  9
$DIMTOL
 70
     0
  9
$DIMLIM
 70
     0
  9
$DIMTIH
 70
     1
  9
$DIMTOH
 70
     1
  9
$DIMSE1
 70
     0
  9
$DIMSE2
 70
     0
  9
$DIMTAD
 70
     3
  9
$DIMZIN
 70
     0
  9
$DIMBLK
  1

  9
$DIMASO
 70
     1
  9
$DIMSHO
 70
     1
  9
$DIMPOST
  1

  9
$DIMAPOST
  1

  9
$DIMALT
 70
     0
  9
$DIMALTD
 70
     2
  9
$DIMALTF
 40
25.4
  9
$DIMLFAC
 40
1.0
  9
$DIMTOFL
 70
     0
  9
$DIMTVP
 40
0.0
  9
$DIMTIX
 70
     0
  9
$DIMSOXD
 70
     0
  9
$DIMSAH
 70
     0
  9
$DIMBLK1
  1

  9
$DIMBLK2
  1

  9
$DIMSTYLE
  2
STANDARD
  9
$DIMCLRD
 70
     0
  9
$DIMCLRE
 70
     0
  9
$DIMCLRT
 70
     0
  9
$DIMTFAC
 40
1.0
  9
$DIMGAP
 40
0.09
  9
$LUNITS
 70
     2
  9
$LUPREC
 70
     4
  9
$SKETCHINC
 40
0.1
  9
$FILLETRAD
 40
0.5
  9
$AUNITS
 70
     0
  9
$AUPREC
 70
     0
  9
$MENU
  1
.
  9
$ELEVATION
 40
0.0
  9
$PELEVATION
 40
0.0
  9
$THICKNESS
 40
0.0
  9
$LIMCHECK
 70
     0
  9
$CHAMFERA
 40
0.5
  9
$CHAMFERB
 40
0.5
  9
$SKPOLY
 70
     0
  9
$TDCREATE
 40
2454013.599401042
  9
$TDUPDATE
 40
2454013.599401053
  9
$TDINDWG
 40
0.0000000116
  9
$TDUSRTIMER
 40
0.0000000116
  9
$USRTIMER
 70
     1
  9
$ANGBASE
 50
0.0
  9
$ANGDIR
 70
     0
  9
$PDMODE
 70
     0
  9
$PDSIZE
 40
1.0
  9
$PLINEWID
 40
0.0
  9
$COORDS
 70
     1
  9
$SPLFRAME
 70
     0
  9
$SPLINETYPE
 70
     6
  9
$SPLINESEGS
 70
     8
  9
$ATTDIA
 70
     0
  9
$ATTREQ
 70
     1
  9
$HANDLING
 70
     1
  9
$HANDSEED
  5
433
  9
$SURFTAB1
 70
     6
  9
$SURFTAB2
 70
     6
  9
$SURFTYPE
 70
     6
  9
$SURFU
 70
     6
  9
$SURFV
 70
     6
  9
$UCSNAME
  2

  9
$UCSORG
 10
0.0
 20
0.0
 30
0.0
  9
$UCSXDIR
 10
1.0
 20
0.0
 30
0.0
  9
$UCSYDIR
 10
0.0
 20
1.0
 30
0.0
  9
$PUCSNAME
  2

  9
$PUCSORG
 10
0.0
 20
0.0
 30
0.0
  9
$PUCSXDIR
 10
1.0
 20
0.0
 30
0.0
  9
$PUCSYDIR
 10
0.0
 20
1.0
 30
0.0
  9
$USERI1
 70
     0
  9
$USERI2
 70
     0
  9
$USERI3
 70
     0
  9
$USERI4
 70
     0
  9
$USERI5
 70
     0
  9
$USERR1
 40
0.0
  9
$USERR2
 40
0.0
  9
$USERR3
 40
0.0
  9
$USERR4
 40
0.0
  9
$USERR5
 40
0.0
  9
$WORLDVIEW
 70
     1
  9
$SHADEDGE
 70
     3
  9
$SHADEDIF
 70
    70
  9
$TILEMODE
 70
     1
  9
$MAXACTVP
 70
    64
  9
$PLIMCHECK
 70
     0
  9
$PEXTMIN
 10
1.000000000000000E+20
 20
1.000000000000000E+20
 30
1.000000000000000E+20
  9
$PEXTMAX
 10
-1.000000000000000E+20
 20
-1.000000000000000E+20
 30
-1.000000000000000E+20
  9
$PLIMMIN
 10
0.0
 20
0.0
  9
$PLIMMAX
 10
12.0
 20
9.0
  9
$UNITMODE
 70
     0
  9
$VISRETAIN
 70
     0
  9
$PLINEGEN
 70
     1
  9
$PSLTSCALE
 70
     0
  0
ENDSEC
  0
SECTION
  2
TABLES
  0
TABLE
  2
VPORT
 70
     1
  0
VPORT
  2
*ACTIVE
 70
     0
 10
0.0
 20
0.0
 11
1.0
 21
1.0
 12
0.0
 22
0.0
 13
0.0
 23
0.0
 14
0.5
 24
0.5
 15
0.5
 25
0.5
 16
0.0
 26
0.0
 36
1.0
 17
91.24999999998283
 27
-4.375000000033197
 37
0.0
 40
4259.775000000002
 41
1.401376833283447
 42
50.0
 43
0.0
 44
0.0
 50
0.0
 51
0.0
 71
     0
 72
  1000
 73
     1
 74
     1
 75
     0
 76
     0
 77
     0
 78
     0
  0
ENDTAB
  0
TABLE
  2
LTYPE
 70
    28
  0
LTYPE
  2
CONTINUOUS
 70
     0
  3
Solid line
 72
    65
 73
     0
 40
0.0
  0
LTYPE
  2
HIDDENX2
 70
     0
  3
CADPAC LINETYPE
 72
    65
 73
     2
 40
10.20618556701029
 49
7.654639175257717
 49
-2.551546391752572
  0
LTYPE
  2
HIDDEN
 70
     0
  3
CADPAC LINETYPE
 72
    65
 73
     2
 40
7.654639175257717
 49
5.103092783505145
 49
-2.551546391752572
  0
LTYPE
  2
HIDDEN2
 70
     0
  3
CADPAC LINETYPE
 72
    65
 73
     2
 40
6.37886597938143
 49
3.827319587628859
 49
-2.551546391752572
  0
LTYPE
  2
DASHED
 70
     0
  3
CADPAC LINETYPE
 72
    65
 73
     2
 40
7.14432989690719
 49
5.103092783505145
 49
-2.041237113402046
  0
LTYPE
  2
DASHED2
 70
     0
  3
CADPAC LINETYPE
 72
    65
 73
     2
 40
4.592783505154634
 49
3.061855670103099
 49
-1.530927835051534
  0
LTYPE
  2
DASHEDX2
 70
     0
  3
CADPAC LINETYPE
 72
    65
 73
     2
 40
12.24742268041234
 49
10.20618556701029
 49
-2.041237113402046
  0
LTYPE
  2
DOTX2
 70
     0
  3
CADPAC LINETYPE
 72
    65
 73
     2
 40
4.465206185566975
 49
0.0
 49
-4.465206185566975
  0
LTYPE
  2
DOT
 70
     0
  3
CADPAC LINETYPE
 72
    65
 73
     2
 40
3.57216494845358
 49
0.0
 49
-3.57216494845358
  0
LTYPE
  2
DOT2
 70
     0
  3
CADPAC LINETYPE
 72
    65
 73
     2
 40
2.679123711340185
 49
0.0
 49
-2.679123711340185
  0
LTYPE
  2
CENTERX2
 70
     0
  3
CADPAC LINETYPE
 72
    65
 73
     4
 40
15.30927835051543
 49
6.37886597938143
 49
-3.189432989690715
 49
2.551546391752572
 49
-3.189432989690715
  0
LTYPE
  2
CENTER
 70
     0
  3
CADPAC LINETYPE
 72
    65
 73
     4
 40
11.73711340206183
 49
5.103092783505145
 49
-2.551546391752572
 49
1.530927835051543
 49
-2.551546391752572
  0
LTYPE
  2
CENTER2
 70
     0
  3
CADPAC LINETYPE
 72
    65
 73
     4
 40
8.164948453608233
 49
3.827319587628859
 49
-1.913659793814429
 49
0.5103092783505144
 49
-1.913659793814429
  0
LTYPE
  2
DASHDOTX2
 70
     0
  3
CADPAC LINETYPE
 72
    65
 73
     4
 40
24.49484536082473
 49
12.24742268041237
 49
-4.082474226804122
 49
4.082474226804122
 49
-4.082474226804122
  0
LTYPE
  2
DASHDOT
 70
     0
  3
CADPAC LINETYPE
 72
    65
 73
     4
 40
12.24742268041231
 49
6.123711340206167
 49
-2.041237113402046
 49
2.041237113402046
 49
-2.041237113402046
  0
LTYPE
  2
DASHDOT2
 70
     0
  3
CADPAC LINETYPE
 72
    65
 73
     4
 40
7.8587628865979
 49
4.592783505154626
 49
-1.530927835051534
 49
0.2041237113402046
 49
-1.530927835051534
  0
LTYPE
  2
DIVIDEX2
 70
     0
  3
CADPAC LINETYPE
 72
    65
 73
     6
 40
32.65979381443297
 49
12.24742268041237
 49
-4.082474226804122
 49
4.082474226804122
 49
-4.082474226804122
 49
4.082474226804122
 49
-4.082474226804122
  0
LTYPE
  2
DIVIDE
 70
     0
  3
CADPAC LINETYPE
 72
    65
 73
     6
 40
16.32989690721639
 49
6.123711340206167
 49
-2.041237113402046
 49
2.041237113402046
 49
-2.041237113402046
 49
2.041237113402046
 49
-2.041237113402046
  0
LTYPE
  2
DIVIDE2
 70
     0
  3
CADPAC LINETYPE
 72
    65
 73
     6
 40
12.2474226804123
 49
4.592783505154626
 49
-1.530927835051534
 49
1.530927835051534
 49
-1.530927835051534
 49
1.530927835051534
 49
-1.530927835051534
  0
LTYPE
  2
BORDERX2
 70
     0
  3
CADPAC LINETYPE
 72
    65
 73
     6
 40
22.32603092783501
 49
6.37886597938143
 49
-3.189432989690715
 49
6.37886597938143
 49
-3.189432989690715
 49
0.0
 49
-3.189432989690715
  0
LTYPE
  2
BORDER
 70
     0
  3
CADPAC LINETYPE
 72
    65
 73
     6
 40
17.86082474226801
 49
5.103092783505145
 49
-2.551546391752572
 49
5.103092783505145
 49
-2.551546391752572
 49
0.0
 49
-2.551546391752572
  0
LTYPE
  2
BORDER2
 70
     0
  3
CADPAC LINETYPE
 72
    65
 73
     6
 40
13.2680412371134
 49
4.082474226804122
 49
-2.551546391752587
 49
1.530927835051534
 49
-2.551546391752587
 49
0.0
 49
-2.551546391752572
  0
LTYPE
  2
PHANTOMX2
 70
     0
  3
CADPAC LINETYPE
 72
    65
 73
     6
 40
19.13659793814429
 49
6.37886597938143
 49
-2.551546391752572
 49
2.551546391752572
 49
-2.551546391752572
 49
2.551546391752572
 49
-2.551546391752572
  0
LTYPE
  2
PHANTOM
 70
     0
  3
CADPAC LINETYPE
 72
    65
 73
     6
 40
15.81958762886595
 49
5.103092783505145
 49
-2.551546391752572
 49
1.530927835051543
 49
-2.551546391752572
 49
1.530927835051543
 49
-2.551546391752572
  0
LTYPE
  2
PHANTOM2
 70
     0
  3
CADPAC LINETYPE
 72
    65
 73
     6
 40
13.52319587628863
 49
3.827319587628859
 49
-2.551546391752572
 49
1.020618556701029
 49
-2.551546391752572
 49
1.020618556701029
 49
-2.551546391752572
  0
LTYPE
  2
ACAD_ISO06W100
 70
     0
  3
CADPAC LINETYPE
 72
    65
 73
     8
 40
27.04639175257732
 49
12.24742268041237
 49
-2.551546391752587
 49
1.530927835051534
 49
-2.551546391752587
 49
1.530927835051534
 49
-2.551546391752587
 49
1.530927835051534
 49
-2.551546391752587
  0
LTYPE
  2
ACAD_ISO13W100
 70
     0
  3
CADPAC LINETYPE
 72
    65
 73
     8
 40
20.41237113402058
 49
5.103092783505145
 49
-2.551546391752572
 49
5.103092783505145
 49
-2.551546391752572
 49
0.0
 49
-2.551546391752572
 49
0.0
 49
-2.551546391752572
  0
LTYPE
  2
ACAD_ISO14W100
 70
     0
  3
CADPAC LINETYPE
 72
    65
 73
     8
 40
15.30927835051543
 49
5.103092783505145
 49
-2.551546391752572
 49
0.0
 49
-2.551546391752572
 49
0.0
 49
-2.551546391752572
 49
0.0
 49
-2.551546391752572
  0
ENDTAB
  0
TABLE
  2
LAYER
 70
     3
  0
LAYER
  2
0
 70
     0
 62
     7
  6
CONTINUOUS
  0
LAYER
  2
｡｡@@
 70
     0
 62
     7
  6
CONTINUOUS
  0
LAYER
  2
ZUWAKU
 70
     0
 62
     7
  6
CONTINUOUS
  0
ENDTAB
  0
TABLE
  2
STYLE
 70
     3
  0
STYLE
  2
STANDARD
 70
     0
 40
0.0
 41
1.0
 50
0.0
 71
     0
 42
0.2
  3
txt
  4

  0
STYLE
  2
FDASTYLE0
 70
     0
 40
75.0
 41
0.6666666666666666
 50
0.0
 71
     0
 42
0.2
  3
txt.shx
  4
bigfont
  0
STYLE
  2
FDASTYLE1
 70
     4
 40
37.485
 41
0.8
 50
0.0
 71
     0
 42
0.2
  3
txt.shx
  4
bigfont
  0
ENDTAB
  0
TABLE
  2
VIEW
 70
     0
  0
ENDTAB
  0
TABLE
  2
UCS
 70
     0
  0
ENDTAB
  0
TABLE
  2
APPID
 70
     2
  0
APPID
  2
ACAD
 70
     0
  0
APPID
  2
DAFUSIONOUT
 70
     0
  0
ENDTAB
  0
TABLE
  2
DIMSTYLE
 70
     1
  0
DIMSTYLE
  2
STANDARD
 70
     0
  3

  4

  5

  6

  7

 40
1.0
 41
0.18
 42
0.0625
 43
0.38
 44
0.18
 45
0.0
 46
0.0
 47
0.0
 48
0.0
140
0.18
141
0.09
142
0.0
143
25.4
144
1.0
145
0.0
146
1.0
147
0.09
 71
     0
 72
     0
 73
     1
 74
     1
 75
     0
 76
     0
 77
     0
 78
     0
170
     0
171
     2
172
     0
173
     0
174
     0
175
     0
176
     0
177
     0
178
     0
  0
ENDTAB
  0
ENDSEC
  0
SECTION
  2
BLOCKS
  0
BLOCK
  8
0
  2
$MODEL_SPACE
 70
     0
 10
0.0
 20
0.0
 30
0.0
  3
$MODEL_SPACE
  1

  0
ENDBLK
  5
21
  8
0
  0
BLOCK
 67
     1
  8
0
  2
$PAPER_SPACE
 70
     0
 10
0.0
 20
0.0
 30
0.0
  3
$PAPER_SPACE
  1

  0
ENDBLK
  5
1D
 67
     1
  8
0
  0
BLOCK
  8
0
  2
DC_GROUP_1
 70
     0
 10
0.0
 20
0.0
 30
0.0
  3
DC_GROUP_1
  1

  0
POINT
  5
82
  8
ZUWAKU
  6
CONTINUOUS
 62
     2
 10
2731.562499999983
 20
-1732.500000000032
 30
0.0
  0
POINT
  5
83
  8
ZUWAKU
  6
CONTINUOUS
 62
     2
 10
1679.500000178796
 20
-1732.500000000033
 30
0.0
  0
POINT
  5
84
  8
ZUWAKU
  6
CONTINUOUS
 62
     2
 10
2106.249999999985
 20
-1878.750000000033
 30
0.0
  0
POINT
  5
85
  8
ZUWAKU
  6
CONTINUOUS
 62
     2
 10
2319.999999999985
 20
-1878.750000000033
 30
0.0
  0
POINT
  5
86
  8
ZUWAKU
  6
CONTINUOUS
 62
     2
 10
2739.062499999983
 20
-1878.750000000033
 30
0.0
  0
POINT
  5
87
  8
ZUWAKU
  6
CONTINUOUS
 62
     2
 10
1737.249999999982
 20
-2013.750000000033
 30
0.0
  0
ENDBLK
  5
4E
  8
0
  0
BLOCK
  8
0
  2
DC_GROUP_2
 70
     0
 10
0.0
 20
0.0
 30
0.0
  3
DC_GROUP_2
  1

  0
TEXT
  5
89
  8
ZUWAKU
 62
     4
 10
-352.1240814826028
 20
-1369.228399678403
 30
0.0
 40
75.0
  1
基礎土台図
 41
0.6666666666666666
  7
FDASTYLE0
 72
     5
 11
-52.12408148260283
 21
-1369.228399678403
 31
0.0
  0
LINE
  5
8A
  8
ZUWAKU
 62
     4
 10
-359.6240814826028
 20
-1376.728399678403
 30
0.0
 11
-44.62408148260284
 21
-1376.728399678403
 31
0.0
  0
LINE
  5
8B
  8
ZUWAKU
 62
     4
 10
-44.62408148260284
 20
-1376.728399678403
 30
0.0
 11
-44.62408148260284
 21
-1286.728399678403
 31
0.0
  0
LINE
  5
8C
  8
ZUWAKU
 62
     4
 10
-359.6240814826028
 20
-1286.728399678403
 30
0.0
 11
-44.62408148260284
 21
-1286.728399678403
 31
0.0
  0
LINE
  5
8D
  8
ZUWAKU
 62
     4
 10
-359.6240814826028
 20
-1376.728399678403
 30
0.0
 11
-359.6240814826028
 21
-1286.728399678403
 31
0.0
  0
ENDBLK
  5
51
  8
0
  0
BLOCK
  8
0
  2
DA_IMAGEDIMGROUP_1
 70
     0
 10
0.0
 20
0.0
 30
0.0
  3
DA_IMAGEDIMGROUP_1
  1

  0
LINE
  5
8E
  8
｡｡@@
 62
     4
 10
546.0916150149578
 20
73.43083605304597
 30
0.0
 11
833.9282845669636
 21
73.43083605304597
 31
0.0
  0
LINE
  5
8F
  8
｡｡@@
 62
     4
 10
683.9282845669636
 20
-134.5691639469549
 30
0.0
 11
833.9282845669636
 21
-134.5691639469549
 31
0.0
  0
LINE
  5
90
  8
｡｡@@
 62
     4
 10
567.135997333663
 20
957.4308360530478
 30
0.0
 11
833.9282845669636
 21
957.4308360530478
 31
0.0
  0
LINE
  5
91
  8
｡｡@@
 62
     4
 10
683.9282845669636
 20
1165.430836053048
 30
0.0
 11
833.9282845669636
 21
1165.430836053048
 31
0.0
  0
LINE
  5
92
  8
｡｡@@
 62
     4
 10
818.9282845669636
 20
-134.5691639469549
 30
0.0
 11
818.9282845669636
 21
73.43083605304597
 31
0.0
  0
INSERT
  5
99
  8
｡｡@@
 62
     4
  2
_OPEN30
 10
818.9282845669636
 20
-134.5691639469549
 30
0.0
 41
45.00004181736546
 42
44.99983910967695
 50
270.0
  0
INSERT
  5
9A
  8
｡｡@@
 62
     4
  2
_OPEN30
 10
818.9282845669636
 20
73.43083605304597
 30
0.0
 41
45.00004181736546
 42
44.99983910967695
 50
90.0
  0
LINE
  5
9B
  8
｡｡@@
 62
     4
 10
818.9282845669636
 20
73.43083605304597
 30
0.0
 11
818.9282845669636
 21
957.4308360530478
 31
0.0
  0
INSERT
  5
9C
  8
｡｡@@
 62
     4
  2
_OPEN30
 10
818.9282845669636
 20
73.43083605304597
 30
0.0
 41
45.00004181736546
 42
44.99983910967695
 50
270.0
  0
INSERT
  5
9D
  8
｡｡@@
 62
     4
  2
_OPEN30
 10
818.9282845669636
 20
957.4308360530478
 30
0.0
 41
45.00004181736546
 42
44.99983910967695
 50
90.0
  0
LINE
  5
9E
  8
｡｡@@
 62
     4
 10
818.9282845669636
 20
957.4308360530478
 30
0.0
 11
818.9282845669636
 21
1165.430836053048
 31
0.0
  0
INSERT
  5
9F
  8
｡｡@@
 62
     4
  2
_OPEN30
 10
818.9282845669636
 20
957.4308360530478
 30
0.0
 41
45.00004181736546
 42
44.99983910967695
 50
270.0
  0
INSERT
  5
A0
  8
｡｡@@
 62
     4
  2
_OPEN30
 10
818.9282845669636
 20
1165.430836053048
 30
0.0
 41
45.00004181736546
 42
44.99983910967695
 50
90.0
  0
TEXT
  5
A1
  8
｡｡@@
 62
     4
 10
803.9282845669636
 20
-98.06916394695449
 30
0.0
 40
45.0
  1
208
 50
90.0
  7
FDASTYLE0
 72
     5
 11
803.9282845669636
 21
36.93083605304551
 31
0.0
  0
TEXT
  5
A2
  8
｡｡@@
 62
     4
 10
803.9282845669636
 20
993.9308360530476
 30
0.0
 40
45.0
  1
208
 50
90.0
  7
FDASTYLE0
 72
     5
 11
803.9282845669636
 21
1128.930836053048
 31
0.0
  0
TEXT
  5
A3
  8
｡｡@@
 62
    32
 10
803.9282845669636
 20
425.4308360530469
 30
0.0
 40
75.0
  1
884
 50
90.0
 41
0.8
  7
FDASTYLE0
 72
     5
 11
803.9282845669636
 21
605.4308360530469
 31
0.0
  0
ENDBLK
  5
54
  8
0
  0
BLOCK
  8
0
  2
DA_IMAGEDIMGROUP_2
 70
     0
 10
0.0
 20
0.0
 30
0.0
  3
DA_IMAGEDIMGROUP_2
  1

  0
LINE
  5
A4
  8
｡｡@@
 62
     4
 10
683.9282845669636
 20
1165.430836053048
 30
0.0
 11
983.9282845669636
 21
1165.430836053048
 31
0.0
  0
LINE
  5
A5
  8
｡｡@@
 62
     4
 10
683.9282845669636
 20
-134.5691639469549
 30
0.0
 11
983.9282845669636
 21
-134.5691639469549
 31
0.0
  0
LINE
  5
A6
  8
｡｡@@
 62
     4
 10
968.9282845669636
 20
1165.430836053048
 30
0.0
 11
968.9282845669636
 21
-134.5691639469549
 31
0.0
  0
INSERT
  5
A7
  8
｡｡@@
 62
     4
  2
_OPEN30
 10
968.9282845669636
 20
1165.430836053048
 30
0.0
 41
45.00004181736546
 42
44.99983910967695
 50
90.0
  0
INSERT
  5
A8
  8
｡｡@@
 62
     4
  2
_OPEN30
 10
968.9282845669636
 20
-134.5691639469549
 30
0.0
 41
45.00004181736546
 42
44.99983910967695
 50
270.0
  0
TEXT
  5
A9
  8
｡｡@@
 62
     4
 10
953.9282845669636
 20
425.4308360530464
 30
0.0
 40
45.0
  1
1300
 50
90.0
  7
FDASTYLE0
 72
     5
 11
953.9282845669636
 21
605.4308360530464
 31
0.0
  0
ENDBLK
  5
57
  8
0
  0
BLOCK
  8
0
  2
DA_IMAGEDIMGROUP_3
 70
     0
 10
0.0
 20
0.0
 30
0.0
  3
DA_IMAGEDIMGROUP_3
  1

  0
LINE
  5
AA
  8
｡｡@@
 62
     4
 10
-923.0717154330284
 20
1055.656049466241
 30
0.0
 11
-923.0717154330284
 21
1328.618372628014
 31
0.0
  0
LINE
  5
AB
  8
｡｡@@
 62
     4
 10
-1131.071715433028
 20
1180.430836053048
 30
0.0
 11
-1131.071715433028
 21
1328.618372628014
 31
0.0
  0
LINE
  5
AC
  8
｡｡@@
 62
     4
 10
460.9282845669663
 20
1105.658717631953
 30
0.0
 11
460.9282845669663
 21
1328.618372628014
 31
0.0
  0
LINE
  5
AD
  8
｡｡@@
 62
     4
 10
668.9282845669636
 20
1180.430836053048
 30
0.0
 11
668.9282845669636
 21
1328.618372628014
 31
0.0
  0
LINE
  5
AE
  8
｡｡@@
 62
     4
 10
-1131.071715433028
 20
1313.618372628015
 30
0.0
 11
-923.0717154330284
 21
1313.618372628015
 31
0.0
  0
INSERT
  5
AF
  8
｡｡@@
 62
     4
  2
_OPEN30
 10
-1131.071715433028
 20
1313.618372628015
 30
0.0
 41
45.00004181736546
 42
44.99983910967695
 50
180.0
  0
INSERT
  5
B0
  8
｡｡@@
 62
     4
  2
_OPEN30
 10
-923.0717154330284
 20
1313.618372628015
 30
0.0
 41
45.00004181736546
 42
44.99983910967695
 50
360.0
  0
LINE
  5
B1
  8
｡｡@@
 62
     4
 10
-923.0717154330284
 20
1313.618372628015
 30
0.0
 11
460.9282845669663
 21
1313.618372628015
 31
0.0
  0
INSERT
  5
B2
  8
｡｡@@
 62
     4
  2
_OPEN30
 10
-923.0717154330284
 20
1313.618372628015
 30
0.0
 41
45.00004181736546
 42
44.99983910967695
 50
180.0
  0
INSERT
  5
B3
  8
｡｡@@
 62
     4
  2
_OPEN30
 10
460.9282845669663
 20
1313.618372628015
 30
0.0
 41
45.00004181736546
 42
44.99983910967695
 50
360.0
  0
LINE
  5
B4
  8
｡｡@@
 62
     4
 10
460.9282845669663
 20
1313.618372628015
 30
0.0
 11
668.9282845669636
 21
1313.618372628015
 31
0.0
  0
INSERT
  5
B5
  8
｡｡@@
 62
     4
  2
_OPEN30
 10
460.9282845669663
 20
1313.618372628015
 30
0.0
 41
45.00004181736546
 42
44.99983910967695
 50
180.0
  0
INSERT
  5
B6
  8
｡｡@@
 62
     4
  2
_OPEN30
 10
668.9282845669636
 20
1313.618372628015
 30
0.0
 41
45.00004181736546
 42
44.99983910967695
 50
360.0
  0
TEXT
  5
B7
  8
｡｡@@
 62
     4
 10
-1094.571715433028
 20
1328.618372628015
 30
0.0
 40
45.0
  1
208
  7
FDASTYLE0
 72
     5
 11
-959.5717154330284
 21
1328.618372628015
 31
0.0
  0
TEXT
  5
B8
  8
｡｡@@
 62
     4
 10
497.428284566965
 20
1328.618372628015
 30
0.0
 40
45.0
  1
208
  7
FDASTYLE0
 72
     5
 11
632.428284566965
 21
1328.618372628015
 31
0.0
  0
TEXT
  5
B9
  8
｡｡@@
 62
    32
 10
-351.0717154330312
 20
1328.618372628015
 30
0.0
 40
75.0
  1
1384
 41
0.8
  7
FDASTYLE0
 72
     5
 11
-111.0717154330312
 21
1328.618372628015
 31
0.0
  0
ENDBLK
  5
5A
  8
0
  0
BLOCK
  8
0
  2
DA_IMAGEDIMGROUP_4
 70
     0
 10
0.0
 20
0.0
 30
0.0
  3
DA_IMAGEDIMGROUP_4
  1

  0
LINE
  5
BA
  8
｡｡@@
 62
     4
 10
-1131.071715433028
 20
1180.430836053048
 30
0.0
 11
-1131.071715433028
 21
1493.618372628014
 31
0.0
  0
LINE
  5
BB
  8
｡｡@@
 62
     4
 10
668.9282845669636
 20
1178.618372628015
 30
0.0
 11
668.9282845669636
 21
1493.618372628014
 31
0.0
  0
LINE
  5
BC
  8
｡｡@@
 62
     4
 10
-1131.071715433028
 20
1478.618372628014
 30
0.0
 11
668.9282845669636
 21
1478.618372628014
 31
0.0
  0
INSERT
  5
BD
  8
｡｡@@
 62
     4
  2
_OPEN30
 10
-1131.071715433028
 20
1478.618372628014
 30
0.0
 41
45.00004181736546
 42
44.99983910967695
 50
180.0
  0
INSERT
  5
BE
  8
｡｡@@
 62
     4
  2
_OPEN30
 10
668.9282845669636
 20
1478.618372628014
 30
0.0
 41
45.00004181736546
 42
44.99983910967695
 50
360.0
  0
TEXT
  5
BF
  8
｡｡@@
 62
     4
 10
-321.0717154330325
 20
1493.618372628014
 30
0.0
 40
45.0
  1
1800
  7
FDASTYLE0
 72
     5
 11
-141.0717154330325
 21
1493.618372628014
 31
0.0
  0
ENDBLK
  5
5D
  8
0
  0
BLOCK
  8
0
  2
DA_IMAGEDIMGROUP_5
 70
     0
 10
0.0
 20
0.0
 30
0.0
  3
DA_IMAGEDIMGROUP_5
  1

  0
LINE
  5
C0
  8
｡｡@@
 62
     4
 10
484.1782845669663
 20
-1034.894732905783
 30
0.0
 11
833.9282845669636
 21
-1034.894732905783
 31
0.0
  0
LINE
  5
C1
  8
｡｡@@
 62
     4
 10
683.9282845669636
 20
-1104.894732905783
 30
0.0
 11
833.9282845669636
 21
-1104.894732905783
 31
0.0
  0
LINE
  5
C2
  8
｡｡@@
 62
     4
 10
818.9282845669636
 20
-1104.894732905783
 30
0.0
 11
818.9282845669636
 21
-1034.894732905783
 31
0.0
  0
LINE
  5
C3
  8
｡｡@@
 62
     4
 10
683.9282845669636
 20
-954.8947329057834
 30
0.0
 11
833.9282845669636
 21
-954.8947329057834
 31
0.0
  0
LINE
  5
C4
  8
｡｡@@
 62
     4
 10
818.9282845669636
 20
-1269.894732905784
 30
0.0
 11
818.9282845669636
 21
-1104.894732905783
 31
0.0
  0
INSERT
  5
C5
  8
｡｡@@
 62
     4
  2
_OPEN30
 10
818.9282845669636
 20
-1104.894732905783
 30
0.0
 41
45.00004181736546
 42
44.99983910967695
 50
90.0
  0
LINE
  5
C6
  8
｡｡@@
 62
     4
 10
818.9282845669636
 20
-789.8947329057835
 30
0.0
 11
818.9282845669636
 21
-954.8947329057834
 31
0.0
  0
INSERT
  5
C7
  8
｡｡@@
 62
     4
  2
_OPEN30
 10
818.9282845669636
 20
-954.8947329057834
 30
0.0
 41
45.00004181736546
 42
44.99983910967695
 50
270.0
  0
LINE
  5
C8
  8
｡｡@@
 62
     4
 10
818.9282845669636
 20
-1034.894732905783
 30
0.0
 11
818.9282845669636
 21
-954.8947329057834
 31
0.0
  0
INSERT
  5
CE
  8
｡｡@@
 62
     4
  2
_DOT
 10
818.9282845669636
 20
-1034.894732905783
 30
0.0
 41
37.5
 42
37.5
 50
270.0
  0
TEXT
  5
CF
  8
｡｡@@
 62
     4
 10
803.9282845669636
 20
-1254.894732905784
 30
0.0
 40
45.0
  1
70
 50
90.0
  7
FDASTYLE0
 72
     5
 11
803.9282845669636
 21
-1164.894732905784
 31
0.0
  0
TEXT
  5
D0
  8
｡｡@@
 62
     4
 10
803.9282845669636
 20
-894.8947329057835
 30
0.0
 40
45.0
  1
80
 50
90.0
  7
FDASTYLE0
 72
     5
 11
803.9282845669636
 21
-804.8947329057835
 31
0.0
  0
ENDBLK
  5
60
  8
0
  0
BLOCK
  8
0
  2
DA_IMAGEDIMGROUP_6
 70
     0
 10
0.0
 20
0.0
 30
0.0
  3
DA_IMAGEDIMGROUP_6
  1

  0
LINE
  5
D1
  8
｡｡@@
 62
     4
 10
683.9282845669636
 20
-954.8947329057834
 30
0.0
 11
994.4524108995126
 21
-954.8947329057834
 31
0.0
  0
LINE
  5
D2
  8
｡｡@@
 62
     4
 10
683.9282845669636
 20
-1104.894732905783
 30
0.0
 11
994.4524108995126
 21
-1104.894732905783
 31
0.0
  0
LINE
  5
D3
  8
｡｡@@
 62
     4
 10
979.4524108995126
 20
-954.8947329057834
 30
0.0
 11
979.4524108995126
 21
-1104.894732905783
 31
0.0
  0
LINE
  5
D4
  8
｡｡@@
 62
     4
 10
979.4524108995126
 20
-744.8947329057835
 30
0.0
 11
979.4524108995126
 21
-954.8947329057834
 31
0.0
  0
INSERT
  5
D5
  8
｡｡@@
 62
     4
  2
_OPEN30
 10
979.4524108995126
 20
-954.8947329057834
 30
0.0
 41
45.00004181736546
 42
44.99983910967695
 50
270.0
  0
LINE
  5
D6
  8
｡｡@@
 62
     4
 10
979.4524108995126
 20
-1179.894732905784
 30
0.0
 11
979.4524108995126
 21
-1104.894732905783
 31
0.0
  0
INSERT
  5
D7
  8
｡｡@@
 62
     4
  2
_OPEN30
 10
979.4524108995126
 20
-1104.894732905783
 30
0.0
 41
45.00004181736546
 42
44.99983910967695
 50
90.0
  0
TEXT
  5
D8
  8
｡｡@@
 62
     4
 10
964.4524108995126
 20
-894.8947329057835
 30
0.0
 40
45.0
  1
150
 50
90.0
  7
FDASTYLE0
 72
     5
 11
964.4524108995126
 21
-759.8947329057835
 31
0.0
  0
ENDBLK
  5
63
  8
0
  0
BLOCK
  8
0
  2
DA_IMAGEDIMGROUP_7
 70
     0
 10
0.0
 20
0.0
 30
0.0
  3
DA_IMAGEDIMGROUP_7
  1

  0
LINE
  5
D9
  8
｡｡@@
 62
     4
 10
-931.3217154330284
 20
-939.8947329057834
 30
0.0
 11
-931.3217154330284
 21
-789.8947329057834
 31
0.0
  0
LINE
  5
DA
  8
｡｡@@
 62
     4
 10
-914.8217154330284
 20
-939.8947329057834
 30
0.0
 11
-914.8217154330284
 21
-789.8947329057834
 31
0.0
  0
LINE
  5
DB
  8
｡｡@@
 62
     4
 10
-931.3217154330284
 20
-804.8947329057834
 30
0.0
 11
-914.8217154330284
 21
-804.8947329057834
 31
0.0
  0
LINE
  5
DC
  8
｡｡@@
 62
     4
 10
-614.8217154330284
 20
-804.8947329057834
 30
0.0
 11
-914.8217154330284
 21
-804.8947329057834
 31
0.0
  0
INSERT
  5
DD
  8
｡｡@@
 62
     4
  2
_OPEN30
 10
-914.8217154330284
 20
-804.8947329057834
 30
0.0
 41
45.00004181736546
 42
44.99983910967695
 50
180.0
  0
LINE
  5
DE
  8
｡｡@@
 62
     4
 10
-1006.321715433028
 20
-804.8947329057834
 30
0.0
 11
-931.3217154330284
 21
-804.8947329057834
 31
0.0
  0
INSERT
  5
DF
  8
｡｡@@
 62
     4
  2
_OPEN30
 10
-931.3217154330284
 20
-804.8947329057834
 30
0.0
 41
45.00004181736546
 42
44.99983910967695
 50
360.0
  0
TEXT
  5
E0
  8
｡｡@@
 62
     4
 10
-854.8217154330284
 20
-789.8947329057834
 30
0.0
 40
45.0
  1
φ16.5
 41
0.9615384615384616
  7
FDASTYLE0
 72
     5
 11
-629.8217154330284
 21
-789.8947329057834
 31
0.0
  0
ENDBLK
  5
66
  8
0
  0
BLOCK
  8
0
  2
DA_IMAGEDIMGROUP_8
 70
     0
 10
0.0
 20
0.0
 30
0.0
  3
DA_IMAGEDIMGROUP_8
  1

  0
LINE
  5
E1
  8
｡｡@@
 62
     4
 10
320.4050444167294
 20
283.1829795140232
 30
0.0
 11
454.9760902485027
 21
80.67136373778506
 31
0.0
  0
INSERT
  5
E2
  8
｡｡@@
 62
     4
  2
_OPEN30
 10
454.9760902485027
 20
80.67136373778506
 30
0.0
 41
45.00004181736546
 42
44.99983910967695
 50
303.6044455584965
  0
LINE
  5
E3
  8
｡｡@@
 62
     4
 10
-129.5949555832706
 20
283.1829795140231
 30
0.0
 11
320.4050444167294
 21
283.1829795140232
 31
0.0
  0
TEXT
  5
E4
  8
｡｡@@
 62
    32
 10
-114.5949555832706
 20
298.1829795140232
 30
0.0
 40
75.0
  1
5-φ16.5
 41
0.7777777777777778
  7
FDASTYLE0
 72
     5
 11
305.4050444167294
 21
298.1829795140232
 31
0.0
  0
ENDBLK
  5
69
  8
0
  0
BLOCK
  8
0
  2
DA_IMAGEDIMGROUP_9
 70
     0
 10
0.0
 20
0.0
 30
0.0
  3
DA_IMAGEDIMGROUP_9
  1

  0
LINE
  5
E5
  8
｡｡@@
 62
     4
 10
-1146.071715433029
 20
-1104.894732905783
 30
0.0
 11
-1296.071715433029
 21
-1104.894732905783
 31
0.0
  0
LINE
  5
E6
  8
｡｡@@
 62
     4
 10
-1146.071715433029
 20
-1044.894732905783
 30
0.0
 11
-1296.071715433029
 21
-1044.894732905783
 31
0.0
  0
LINE
  5
E7
  8
｡｡@@
 62
     4
 10
-1281.071715433029
 20
-1104.894732905783
 30
0.0
 11
-1281.071715433029
 21
-1044.894732905783
 31
0.0
  0
LINE
  5
E8
  8
｡｡@@
 62
     4
 10
-1146.071715433029
 20
-954.8947329057834
 30
0.0
 11
-1296.071715433029
 21
-954.8947329057834
 31
0.0
  0
LINE
  5
E9
  8
｡｡@@
 62
     4
 10
-1281.071715433029
 20
-1269.894732905784
 30
0.0
 11
-1281.071715433029
 21
-1104.894732905783
 31
0.0
  0
INSERT
  5
EA
  8
｡｡@@
 62
     4
  2
_OPEN30
 10
-1281.071715433029
 20
-1104.894732905783
 30
0.0
 41
45.00004181736546
 42
44.99983910967695
 50
90.0
  0
LINE
  5
EB
  8
｡｡@@
 62
     4
 10
-1281.071715433029
 20
-789.8947329057834
 30
0.0
 11
-1281.071715433029
 21
-954.8947329057834
 31
0.0
  0
INSERT
  5
EC
  8
｡｡@@
 62
     4
  2
_OPEN30
 10
-1281.071715433029
 20
-954.8947329057834
 30
0.0
 41
45.00004181736546
 42
44.99983910967695
 50
270.0
  0
LINE
  5
ED
  8
｡｡@@
 62
     4
 10
-1281.071715433029
 20
-1044.894732905783
 30
0.0
 11
-1281.071715433029
 21
-954.8947329057834
 31
0.0
  0
INSERT
  5
EE
  8
｡｡@@
 62
     4
  2
_DOT
 10
-1281.071715433029
 20
-1044.894732905783
 30
0.0
 41
37.5
 42
37.5
 50
270.0
  0
TEXT
  5
EF
  8
｡｡@@
 62
     4
 10
-1296.071715433029
 20
-1254.894732905784
 30
0.0
 40
45.0
  1
60
 50
90.0
  7
FDASTYLE0
 72
     5
 11
-1296.071715433029
 21
-1164.894732905784
 31
0.0
  0
TEXT
  5
F0
  8
｡｡@@
 62
     4
 10
-1296.071715433029
 20
-894.8947329057834
 30
0.0
 40
45.0
  1
90
 50
90.0
  7
FDASTYLE0
 72
     5
 11
-1296.071715433029
 21
-804.8947329057834
 31
0.0
  0
ENDBLK
  5
6C
  8
0
  0
BLOCK
  8
0
  2
DC_GROUP_3
 70
     0
 10
0.0
 20
0.0
 30
0.0
  3
DC_GROUP_3
  1

  0
LINE
  5
F1
  8
｡｡@@
 62
     4
 10
793.2874949495215
 20
-791.2781632699221
 30
0.0
 11
876.897353071234
 21
-664.1215040431508
 31
0.0
  0
INSERT
  5
F2
  8
｡｡@@
 62
     4
  2
_OPEN30
 10
793.2874949495215
 20
-791.2781632699221
 30
0.0
 41
45.00004181736546
 42
44.99983910967695
 50
236.6737103128848
  0
LINE
  5
F3
  8
｡｡@@
 62
     4
 10
876.897353071234
 20
-664.1215040431508
 30
0.0
 11
1296.897353071234
 21
-664.1215040431508
 31
0.0
  0
TEXT
  5
F4
  8
｡｡@@
 62
     4
 10
876.897353071234
 20
-664.1215040431508
 30
0.0
 40
52.5
  1
アンカーボルト穴深さ
 41
0.6666666666666666
  7
FDASTYLE0
 72
     5
 11
1296.897353071234
 21
-664.1215040431508
 31
0.0
  0
ENDBLK
  5
6F
  8
0
  0
BLOCK
  8
0
  2
DC_GROUP_4
 70
     0
 10
0.0
 20
0.0
 30
0.0
  3
DC_GROUP_4
  1

  0
LINE
  5
F5
  8
｡｡@@
 62
     4
 10
-1356.99040856075
 20
-817.244699348213
 30
0.0
 11
-1438.113884812916
 21
-739.3661621461338
 31
0.0
  0
INSERT
  5
F6
  8
｡｡@@
 62
     4
  2
_OPEN30
 10
-1356.99040856075
 20
-817.244699348213
 30
0.0
 41
45.00004181736546
 42
44.99983910967695
 50
316.1691393279073
  0
LINE
  5
F7
  8
｡｡@@
 62
     4
 10
-1438.113884812916
 20
-739.3661621461338
 30
0.0
 11
-1606.113884812916
 21
-739.3661621461338
 31
0.0
  0
TEXT
  5
F8
  8
｡｡@@
 62
     4
 10
-1606.113884812916
 20
-739.3661621461338
 30
0.0
 40
52.5
  1
鉄筋位置
 41
0.6666666666666666
  7
FDASTYLE0
 72
     5
 11
-1438.113884812916
 21
-739.3661621461338
 31
0.0
  0
ENDBLK
  5
72
  8
0
  0
BLOCK
  8
0
  2
DC_GROUP_5
 70
     0
 10
0.0
 20
0.0
 30
0.0
  3
DC_GROUP_5
  1

  0
LINE
  5
F9
  8
｡｡@@
 62
     4
 10
-176.5618540383641
 20
-1097.299796196923
 30
0.0
 11
-132.3325167338219
 21
-1185.758470806007
 31
0.0
  0
INSERT
  5
FA
  8
｡｡@@
 62
     4
  2
_OPEN30
 10
-176.5618540383641
 20
-1097.299796196923
 30
0.0
 41
45.00004181736546
 42
44.99983910967695
 50
116.565051177078
  0
LINE
  5
FB
  8
｡｡@@
 62
     4
 10
-132.3325167338219
 20
-1185.758470806007
 30
0.0
 11
119.667483266178
 21
-1185.758470806007
 31
0.0
  0
TEXT
  5
FC
  8
｡｡@@
 62
     4
 10
-132.3325167338219
 20
-1185.758470806007
 30
0.0
 40
52.5
  1
コンクリート
 41
0.6666666666666666
  7
FDASTYLE0
 72
     5
 11
119.6674832661781
 21
-1185.758470806007
 31
0.0
  0
ENDBLK
  5
75
  8
0
  0
BLOCK
  8
0
  2
DC_GROUP_6
 70
     0
 10
0.0
 20
0.0
 30
0.0
  3
DC_GROUP_6
  1

  0
LINE
  5
FD
  8
｡｡@@
 62
     4
 10
-860.3691074034653
 20
-1043.920645911552
 30
0.0
 11
-799.2345980315115
 21
-1185.495299193972
 31
0.0
  0
INSERT
  5
FE
  8
｡｡@@
 62
     4
  2
_OPEN30
 10
-860.3691074034653
 20
-1043.920645911552
 30
0.0
 41
45.00004181736546
 42
44.99983910967695
 50
113.355564859286
  0
LINE
  5
FF
  8
｡｡@@
 62
     4
 10
-799.2345980315115
 20
-1185.495299193972
 30
0.0
 11
-715.2345980315115
 21
-1185.495299193972
 31
0.0
  0
TEXT
  5
100
  8
｡｡@@
 62
     4
 10
-799.2345980315115
 20
-1185.495299193972
 30
0.0
 40
52.5
  1
鉄筋
 41
0.6666666666666666
  7
FDASTYLE0
 72
     5
 11
-715.2345980315115
 21
-1185.495299193972
 31
0.0
  0
ENDBLK
  5
78
  8
0
  0
BLOCK
  8
0
  2
DA_IMAGEDIMGROUP_10
 70
     0
 10
0.0
 20
0.0
 30
0.0
  3
DA_IMAGEDIMGROUP_10
  1

  0
LINE
  5
101
  8
｡｡@@
 62
     4
 10
-931.1461131271901
 20
86.07220076879226
 30
0.0
 11
-1013.112567307486
 21
214.3997715669
 31
0.0
  0
LINE
  5
102
  8
｡｡@@
 62
     4
 10
452.8538868728047
 20
970.0722007687944
 30
0.0
 11
370.8874326925096
 21
1098.399771566903
 31
0.0
  0
LINE
  5
103
  8
｡｡@@
 62
     4
 10
-1005.038169613324
 20
201.7584068511536
 30
0.0
 11
378.9618303866712
 21
1085.758406851157
 31
0.0
  0
INSERT
  5
104
  8
｡｡@@
 62
     4
  2
_OPEN30
 10
-1005.038169613324
 20
201.7584068511536
 30
0.0
 41
45.00004181736546
 42
44.99983910967695
 50
212.5675236059491
  0
INSERT
  5
105
  8
｡｡@@
 62
     4
  2
_OPEN30
 10
378.9618303866712
 20
1085.758406851157
 30
0.0
 41
45.00004181736546
 42
44.99983910967695
 50
32.56752360594908
  0
TEXT
  5
106
  8
｡｡@@
 62
    32
 10
-472.8089438964438
 20
559.5069992369611
 30
0.0
 40
75.0
  1
1642.2
 50
32.56752360594906
 41
0.7999999999999998
  7
FDASTYLE0
 72
     5
 11
-169.4161907185322
 21
753.2925438968422
 31
0.0
  0
ENDBLK
  5
7B
  8
0
  0
BLOCK
  8
0
  2
DA_IMAGEDIMGROUP_11
 70
     0
 10
0.0
 20
0.0
 30
0.0
  3
DA_IMAGEDIMGROUP_11
  1

  0
LINE
  5
107
  8
｡｡@@
 62
     4
 10
-923.0717154330284
 20
-54.30973605404279
 30
0.0
 11
-923.0717154330284
 21
-352.6342772381709
 31
0.0
  0
LINE
  5
108
  8
｡｡@@
 62
     4
 10
-231.0717154330303
 20
-10.21564362258812
 30
0.0
 11
-231.0717154330303
 21
-352.6342772381709
 31
0.0
  0
LINE
  5
109
  8
｡｡@@
 62
     4
 10
460.9282845669661
 20
3.804027517203167
 30
0.0
 11
460.9282845669661
 21
-352.6342772381709
 31
0.0
  0
LINE
  5
10A
  8
｡｡@@
 62
     4
 10
-923.0717154330284
 20
-337.6342772381709
 30
0.0
 11
-231.0717154330303
 21
-337.6342772381709
 31
0.0
  0
INSERT
  5
10B
  8
｡｡@@
 62
     4
  2
_OPEN30
 10
-923.0717154330284
 20
-337.6342772381709
 30
0.0
 41
45.00004181736546
 42
44.99983910967695
 50
180.0
  0
INSERT
  5
10C
  8
｡｡@@
 62
     4
  2
_OPEN30
 10
-231.0717154330303
 20
-337.6342772381709
 30
0.0
 41
45.00004181736546
 42
44.99983910967695
 50
360.0
  0
LINE
  5
10D
  8
｡｡@@
 62
     4
 10
-231.0717154330303
 20
-337.6342772381709
 30
0.0
 11
460.9282845669661
 21
-337.6342772381709
 31
0.0
  0
INSERT
  5
10E
  8
｡｡@@
 62
     4
  2
_OPEN30
 10
-231.0717154330303
 20
-337.6342772381709
 30
0.0
 41
45.00004181736546
 42
44.99983910967695
 50
180.0
  0
INSERT
  5
10F
  8
｡｡@@
 62
     4
  2
_OPEN30
 10
460.9282845669661
 20
-337.6342772381709
 30
0.0
 41
45.00004181736546
 42
44.99983910967695
 50
360.0
  0
TEXT
  5
110
  8
｡｡@@
 62
     4
 10
-631.0717154330293
 20
-322.6342772381709
 30
0.0
 40
45.0
  1
692
 41
0.8
  7
FDASTYLE0
 72
     5
 11
-523.0717154330293
 21
-322.6342772381709
 31
0.0
  0
TEXT
  5
111
  8
｡｡@@
 62
     4
 10
60.92828456696793
 20
-322.6342772381709
 30
0.0
 40
45.0
  1
692
 41
0.8
  7
FDASTYLE0
 72
     5
 11
168.9282845669679
 21
-322.6342772381709
 31
0.0
  0
ENDBLK
  5
7E
  8
0
  0
BLOCK
  8
0
  2
DA_IMAGEDIMGROUP_12
 70
     0
 10
0.0
 20
0.0
 30
0.0
  3
DA_IMAGEDIMGROUP_12
  1

  0
LINE
  5
112
  8
｡｡@@
 62
     4
 10
-1050.460731447674
 20
73.43083605304597
 30
0.0
 11
-1294.696524792638
 21
73.43083605304597
 31
0.0
  0
LINE
  5
113
  8
｡｡@@
 62
     4
 10
-324.2079283276794
 20
97.43083605304597
 30
0.0
 11
-1294.696524792638
 21
97.43083605304597
 31
0.0
  0
LINE
  5
114
  8
｡｡@@
 62
     4
 10
-1279.696524792638
 20
73.43083605304597
 30
0.0
 11
-1279.696524792638
 21
97.43083605304597
 31
0.0
  0
LINE
  5
115
  8
｡｡@@
 62
     4
 10
-1279.696524792638
 20
-72.03586394695404
 30
0.0
 11
-1279.696524792638
 21
73.43083605304597
 31
0.0
  0
INSERT
  5
116
  8
｡｡@@
 62
     4
  2
_OPEN30
 10
-1279.696524792638
 20
73.43083605304597
 30
0.0
 41
45.00004181736546
 42
44.99983910967695
 50
90.0
  0
LINE
  5
117
  8
｡｡@@
 62
     4
 10
-1279.696524792638
 20
172.430836053046
 30
0.0
 11
-1279.696524792638
 21
97.43083605304597
 31
0.0
  0
INSERT
  5
118
  8
｡｡@@
 62
     4
  2
_OPEN30
 10
-1279.696524792638
 20
97.43083605304597
 30
0.0
 41
45.00004181736546
 42
44.99983910967695
 50
270.0
  0
TEXT
  5
119
  8
｡｡@@
 62
     4
 10
-1294.696524792638
 20
-57.03586394695404
 30
0.0
 40
45.0
  1
24
 50
90.0
 41
0.8
  7
FDASTYLE0
 72
     5
 11
-1294.696524792638
 21
14.96413605304596
 31
0.0
  0
ENDBLK
  5
81
  8
0
  0
BLOCK
  8
0
  2
_OPEN30
 70
     0
 10
0.0
 20
0.0
 30
0.0
  3
_OPEN30
  1

  0
LINE
  5
96
  8
0
  6
BYBLOCK
 62
     0
 10
-1.0
 20
0.267949
 30
0.0
 11
0.0
 21
0.0
 31
0.0
  0
LINE
  5
97
  8
0
  6
BYBLOCK
 62
     0
 10
0.0
 20
0.0
 30
0.0
 11
-1.0
 21
-0.267949
 31
0.0
  0
LINE
  5
98
  8
0
  6
BYBLOCK
 62
     0
 10
0.0
 20
0.0
 30
0.0
 11
-1.0
 21
0.0
 31
0.0
  0
ENDBLK
  5
95
  8
0
  0
BLOCK
  8
0
  2
_DOT
 70
     0
 10
0.0
 20
0.0
 30
0.0
  3
_DOT
  1

  0
POLYLINE
  5
CC
  8
0
  6
BYBLOCK
 62
     0
 66
     1
 10
0.0
 20
0.0
 30
0.0
 70
     1
 40
0.5
 41
0.5
  0
VERTEX
  5
431
  8
0
  6
BYBLOCK
 62
     0
 10
-0.25
 20
0.0
 30
0.0
 42
1.0
  0
VERTEX
  5
432
  8
0
  6
BYBLOCK
 62
     0
 10
0.25
 20
0.0
 30
0.0
 42
1.0
  0
SEQEND
  5
430
  8
0
  6
BYBLOCK
 62
     0
  0
LINE
  5
CD
  8
0
  6
BYBLOCK
 62
     0
 10
-0.5
 20
0.0
 30
0.0
 11
-1.0
 21
0.0
 31
0.0
  0
ENDBLK
  5
CB
  8
0
  0
ENDSEC
  0
SECTION
  2
ENTITIES
  0
LINE
  5
11A
  8
ZUWAKU
 62
     3
 10
1532.499999999982
 20
-1586.250000000037
 30
0.0
 11
1532.499999999982
 21
-2092.500000000033
 31
0.0
  0
LINE
  5
11B
  8
ZUWAKU
 62
     3
 10
1532.499999999983
 20
-1642.500000000033
 30
0.0
 11
3017.499999999982
 21
-1642.500000000032
 31
0.0
  0
LINE
  5
11C
  8
ZUWAKU
 62
     3
 10
3017.499999999981
 20
-1586.250000000037
 30
0.0
 11
1532.499999999982
 21
-1586.250000000037
 31
0.0
  0
LINE
  5
11D
  8
ZUWAKU
 62
     4
 10
2409.999999999984
 20
-1822.500000000032
 30
0.0
 11
2409.999999999985
 21
-1935.000000000033
 31
0.0
  0
LINE
  5
11E
  8
ZUWAKU
 62
     4
 10
2615.312499999988
 20
-1642.500000000032
 30
0.0
 11
2615.312499999983
 21
-1935.000000000032
 31
0.0
  0
LINE
  5
11F
  8
ZUWAKU
 62
     4
 10
1532.499999999983
 20
-1822.500000000033
 30
0.0
 11
3017.499999999982
 21
-1822.500000000032
 31
0.0
  0
LINE
  5
120
  8
ZUWAKU
 62
     4
 10
3017.499999999982
 20
-1935.000000000033
 30
0.0
 11
1532.499999999983
 21
-1935.000000000033
 31
0.0
  0
LINE
  5
121
  8
ZUWAKU
 62
     4
 10
1611.249999999983
 20
-1642.500000000032
 30
0.0
 11
1611.249999999983
 21
-1935.000000000033
 31
0.0
  0
LINE
  5
122
  8
ZUWAKU
 62
     4
 10
2488.749999999983
 20
-1822.500000000032
 30
0.0
 11
2488.749999999984
 21
-1935.000000000033
 31
0.0
  0
LINE
  5
123
  8
ZUWAKU
 62
     4
 10
2694.062499999983
 20
-1642.500000000032
 30
0.0
 11
2694.062499999983
 21
-1935.000000000032
 31
0.0
  0
LINE
  5
124
  8
ZUWAKU
 62
     4
 10
1656.249999999982
 20
-1935.000000000033
 30
0.0
 11
1656.249999999982
 21
-2092.500000000032
 31
0.0
  0
ARC
  5
125
  8
ZUWAKU
 62
     4
 10
2421.191701170571
 20
-1980.697160894262
 30
0.0
 40
0.9762050030506854
 50
89.99999999999885
 51
269.9999999999988
  0
LINE
  5
126
  8
ZUWAKU
 62
     4
 10
2421.191701170571
 20
-1981.673365897304
 30
0.0
 11
2430.465648699549
 21
-1981.673365897304
 31
0.0
  0
ARC
  5
127
  8
ZUWAKU
 62
     4
 10
2430.465648699549
 20
-1996.804543444604
 30
0.0
 40
15.13117754728492
 50
0.0000000000000114
 51
89.99999999999905
  0
LINE
  5
128
  8
ZUWAKU
 62
     4
 10
2445.59682624684
 20
-1996.804543444604
 30
0.0
 11
2445.59682624684
 21
-2058.793561138317
 31
0.0
  0
LINE
  5
129
  8
ZUWAKU
 62
     4
 10
2445.59682624684
 20
-2058.793561138317
 30
0.0
 11
2304.047100804488
 21
-2058.793561138317
 31
0.0
  0
LINE
  5
12A
  8
ZUWAKU
 62
     4
 10
2304.047100804488
 20
-2058.793561138317
 30
0.0
 11
2304.047100804488
 21
-1996.804543444604
 31
0.0
  0
ARC
  5
12B
  8
ZUWAKU
 62
     4
 10
2319.178278351778
 20
-1996.804543444604
 30
0.0
 40
15.13117754728492
 50
90.0000000000001
 51
179.9999999999999
  0
LINE
  5
12C
  8
ZUWAKU
 62
     4
 10
2319.178278351778
 20
-1981.673365897304
 30
0.0
 11
2328.452225880757
 21
-1981.673365897304
 31
0.0
  0
ARC
  5
12D
  8
ZUWAKU
 62
     4
 10
2328.452225880757
 20
-1980.697160894262
 30
0.0
 40
0.9762050030506765
 50
270.0000000000001
 51
450.0000000000004
  0
LINE
  5
12E
  8
ZUWAKU
 62
     4
 10
2328.452225880757
 20
-1979.72095589122
 30
0.0
 11
2319.178278351778
 21
-1979.72095589122
 31
0.0
  0
ARC
  5
12F
  8
ZUWAKU
 62
     4
 10
2319.178278351778
 20
-1996.804543444604
 30
0.0
 40
17.08358755338621
 50
90.00000000000058
 51
179.9999999999999
  0
LINE
  5
130
  8
ZUWAKU
 62
     4
 10
2302.094690798394
 20
-1996.804543444604
 30
0.0
 11
2302.094690798394
 21
-2060.745971144421
 31
0.0
  0
LINE
  5
131
  8
ZUWAKU
 62
     4
 10
2302.094690798394
 20
-2060.745971144421
 30
0.0
 11
2447.549236252933
 21
-2060.745971144421
 31
0.0
  0
LINE
  5
132
  8
ZUWAKU
 62
     4
 10
2447.549236252933
 20
-2060.745971144421
 30
0.0
 11
2447.549236252933
 21
-1996.804543444604
 31
0.0
  0
ARC
  5
133
  8
ZUWAKU
 62
     4
 10
2430.465648699549
 20
-1996.804543444604
 30
0.0
 40
17.08358755338621
 50
0.0000000000000114
 51
89.99999999999905
  0
LINE
  5
134
  8
ZUWAKU
 62
     4
 10
2430.465648699549
 20
-1979.72095589122
 30
0.0
 11
2421.191701170571
 21
-1979.72095589122
 31
0.0
  0
LINE
  5
135
  8
ZUWAKU
 62
     4
 10
2406.480723927739
 20
-2032.841228112485
 30
0.0
 11
2406.723545085091
 21
-2030.988499703834
 31
0.0
  0
LINE
  5
136
  8
ZUWAKU
 62
     4
 10
2406.723545085091
 20
-2030.988499703834
 30
0.0
 11
2406.738434963124
 21
-2029.105925542373
 31
0.0
  0
LINE
  5
137
  8
ZUWAKU
 62
     4
 10
2406.738434963124
 20
-2029.105925542373
 30
0.0
 11
2406.525280240861
 21
-2027.207833154213
 31
0.0
  0
LINE
  5
138
  8
ZUWAKU
 62
     4
 10
2406.525280240861
 20
-2027.207833154213
 30
0.0
 11
2406.085703154461
 21
-2025.308668168549
 31
0.0
  0
LINE
  5
139
  8
ZUWAKU
 62
     4
 10
2406.085703154461
 20
-2025.308668168549
 30
0.0
 11
2405.423049150958
 21
-2023.422884377661
 31
0.0
  0
LINE
  5
13A
  8
ZUWAKU
 62
     4
 10
2405.423049150958
 20
-2023.422884377661
 30
0.0
 11
2405.287062409592
 21
-2023.135983305382
 31
0.0
  0
LINE
  5
13B
  8
ZUWAKU
 62
     4
 10
2400.936228632107
 20
-2016.602663216005
 30
0.0
 11
2400.667100127726
 21
-2016.296790939281
 31
0.0
  0
LINE
  5
13C
  8
ZUWAKU
 62
     4
 10
2400.667100127726
 20
-2016.296790939281
 30
0.0
 11
2398.99705873971
 21
-2014.687372144546
 31
0.0
  0
LINE
  5
13D
  8
ZUWAKU
 62
     4
 10
2398.99705873971
 20
-2014.687372144546
 30
0.0
 11
2397.15788929884
 21
-2013.172169020621
 31
0.0
  0
LINE
  5
13E
  8
ZUWAKU
 62
     4
 10
2397.15788929884
 20
-2013.172169020621
 30
0.0
 11
2395.163588995082
 21
-2011.762713178215
 31
0.0
  0
LINE
  5
13F
  8
ZUWAKU
 62
     4
 10
2395.163588995082
 20
-2011.762713178215
 30
0.0
 11
2393.029335657934
 21
-2010.469731427324
 31
0.0
  0
LINE
  5
140
  8
ZUWAKU
 62
     4
 10
2393.029335657934
 20
-2010.469731427324
 30
0.0
 11
2390.771372243985
 21
-2009.303064139787
 31
0.0
  0
LINE
  5
141
  8
ZUWAKU
 62
     4
 10
2390.771372243985
 20
-2009.303064139787
 30
0.0
 11
2388.406883218229
 21
-2008.27159035813
 31
0.0
  0
LINE
  5
142
  8
ZUWAKU
 62
     4
 10
2388.406883218229
 20
-2008.27159035813
 30
0.0
 11
2385.953863769846
 21
-2007.383160220644
 31
0.0
  0
LINE
  5
143
  8
ZUWAKU
 62
     4
 10
2385.953863769846
 20
-2007.383160220644
 30
0.0
 11
2383.430982858033
 21
-2006.644535217139
 31
0.0
  0
LINE
  5
144
  8
ZUWAKU
 62
     4
 10
2383.430982858033
 20
-2006.644535217139
 30
0.0
 11
2380.857441129873
 21
-2006.061336729871
 31
0.0
  0
LINE
  5
145
  8
ZUWAKU
 62
     4
 10
2380.857441129873
 20
-2006.061336729871
 30
0.0
 11
2378.25282479186
 21
-2005.638003251478
 31
0.0
  0
LINE
  5
146
  8
ZUWAKU
 62
     4
 10
2378.25282479186
 20
-2005.638003251478
 30
0.0
 11
2375.636956547055
 21
-2005.377756605336
 31
0.0
  0
LINE
  5
147
  8
ZUWAKU
 62
     4
 10
2375.636956547055
 20
-2005.377756605336
 30
0.0
 11
2373.029744732292
 21
-2005.282577425588
 31
0.0
  0
LINE
  5
148
  8
ZUWAKU
 62
     4
 10
2373.029744732292
 20
-2005.282577425588
 30
0.0
 11
2370.451031803756
 21
-2005.353190083223
 31
0.0
  0
LINE
  5
149
  8
ZUWAKU
 62
     4
 10
2370.451031803756
 20
-2005.353190083223
 30
0.0
 11
2367.920443323911
 21
-2005.589057173317
 31
0.0
  0
LINE
  5
14A
  8
ZUWAKU
 62
     4
 10
2367.920443323911
 20
-2005.589057173317
 30
0.0
 11
2365.457238599106
 21
-2005.988383604894
 31
0.0
  0
LINE
  5
14B
  8
ZUWAKU
 62
     4
 10
2365.457238599106
 20
-2005.988383604894
 30
0.0
 11
2363.080164104606
 21
-2006.548130262653
 31
0.0
  0
LINE
  5
14C
  8
ZUWAKU
 62
     4
 10
2363.080164104606
 20
-2006.548130262653
 30
0.0
 11
2360.807310812634
 21
-2007.264037136578
 31
0.0
  0
LINE
  5
14D
  8
ZUWAKU
 62
     4
 10
2360.807310812634
 20
-2007.264037136578
 30
0.0
 11
2358.655976509131
 21
-2008.130655743081
 31
0.0
  0
LINE
  5
14E
  8
ZUWAKU
 62
     4
 10
2358.655976509131
 20
-2008.130655743081
 30
0.0
 11
2356.642534147159
 21
-2009.141390591259
 31
0.0
  0
LINE
  5
14F
  8
ZUWAKU
 62
     4
 10
2356.642534147159
 20
-2009.141390591259
 30
0.0
 11
2354.782307238838
 21
-2010.288549378642
 31
0.0
  0
LINE
  5
150
  8
ZUWAKU
 62
     4
 10
2354.782307238838
 20
-2010.288549378642
 30
0.0
 11
2353.089453234181
 21
-2011.563401534203
 31
0.0
  0
LINE
  5
151
  8
ZUWAKU
 62
     4
 10
2353.089453234181
 20
-2011.563401534203
 30
0.0
 11
2351.576855774334
 21
-2012.956244663218
 31
0.0
  0
LINE
  5
152
  8
ZUWAKU
 62
     4
 10
2351.576855774334
 20
-2012.956244663218
 30
0.0
 11
2350.256026639293
 21
-2014.456478388473
 31
0.0
  0
LINE
  5
153
  8
ZUWAKU
 62
     4
 10
2350.256026639293
 20
-2014.456478388473
 30
0.0
 11
2349.937485408791
 21
-2014.910860660774
 31
0.0
  0
LINE
  5
154
  8
ZUWAKU
 62
     4
 10
2348.719866175544
 20
-2016.823952071144
 30
0.0
 11
2348.228346595809
 21
-2017.732716477862
 31
0.0
  0
LINE
  5
155
  8
ZUWAKU
 62
     4
 10
2348.228346595809
 20
-2017.732716477862
 30
0.0
 11
2348.200048601701
 21
-2017.80438325557
 31
0.0
  0
LINE
  5
156
  8
ZUWAKU
 62
     4
 10
2347.499825399625
 20
-2019.626906955342
 30
0.0
 11
2347.068023135787
 21
-2021.292568965843
 31
0.0
  0
LINE
  5
157
  8
ZUWAKU
 62
     4
 10
2347.068023135787
 20
-2021.292568965843
 30
0.0
 11
2346.825201978435
 21
-2023.145297374514
 31
0.0
  0
LINE
  5
158
  8
ZUWAKU
 62
     4
 10
2346.825201978435
 20
-2023.145297374514
 30
0.0
 11
2346.810312100412
 21
-2025.027871535955
 31
0.0
  0
LINE
  5
159
  8
ZUWAKU
 62
     4
 10
2346.810312100412
 20
-2025.027871535955
 30
0.0
 11
2347.023466822675
 21
-2026.925963924115
 31
0.0
  0
LINE
  5
15A
  8
ZUWAKU
 62
     4
 10
2347.023466822675
 20
-2026.925963924115
 30
0.0
 11
2347.463043909075
 21
-2028.825128909779
 31
0.0
  0
LINE
  5
15B
  8
ZUWAKU
 62
     4
 10
2347.463043909075
 20
-2028.825128909779
 30
0.0
 11
2348.125697912578
 21
-2030.710912700687
 31
0.0
  0
LINE
  5
15C
  8
ZUWAKU
 62
     4
 10
2348.125697912578
 20
-2030.710912700687
 30
0.0
 11
2349.006385636081
 21
-2032.568963343496
 31
0.0
  0
LINE
  5
15D
  8
ZUWAKU
 62
     4
 10
2349.006385636081
 20
-2032.568963343496
 30
0.0
 11
2350.098404514236
 21
-2034.385139950904
 31
0.0
  0
LINE
  5
15E
  8
ZUWAKU
 62
     4
 10
2350.098404514236
 20
-2034.385139950904
 30
0.0
 11
2351.393443624012
 21
-2036.145620322301
 31
0.0
  0
LINE
  5
15F
  8
ZUWAKU
 62
     4
 10
2351.393443624012
 20
-2036.145620322301
 30
0.0
 11
2352.881646935809
 21
-2037.837006139047
 31
0.0
  0
LINE
  5
160
  8
ZUWAKU
 62
     4
 10
2352.881646935809
 20
-2037.837006139047
 30
0.0
 11
2354.551688323816
 21
-2039.446424933803
 31
0.0
  0
LINE
  5
161
  8
ZUWAKU
 62
     4
 10
2354.551688323816
 20
-2039.446424933803
 30
0.0
 11
2356.390857764686
 21
-2040.961628057707
 31
0.0
  0
LINE
  5
162
  8
ZUWAKU
 62
     4
 10
2356.390857764686
 20
-2040.961628057707
 30
0.0
 11
2358.385158068454
 21
-2042.371083900113
 31
0.0
  0
LINE
  5
163
  8
ZUWAKU
 62
     4
 10
2358.385158068454
 20
-2042.371083900113
 30
0.0
 11
2360.519411405602
 21
-2043.664065651025
 31
0.0
  0
LINE
  5
164
  8
ZUWAKU
 62
     4
 10
2360.519411405602
 20
-2043.664065651025
 30
0.0
 11
2362.777374819541
 21
-2044.830732938541
 31
0.0
  0
LINE
  5
165
  8
ZUWAKU
 62
     4
 10
2362.777374819541
 20
-2044.830732938541
 30
0.0
 11
2365.141863845307
 21
-2045.862206720198
 31
0.0
  0
LINE
  5
166
  8
ZUWAKU
 62
     4
 10
2365.141863845307
 20
-2045.862206720198
 30
0.0
 11
2367.59488329368
 21
-2046.750636857684
 31
0.0
  0
LINE
  5
167
  8
ZUWAKU
 62
     4
 10
2367.59488329368
 20
-2046.750636857684
 30
0.0
 11
2370.117764205503
 21
-2047.489261861189
 31
0.0
  0
LINE
  5
168
  8
ZUWAKU
 62
     4
 10
2370.117764205503
 20
-2047.489261861189
 30
0.0
 11
2372.691305933663
 21
-2048.072460348457
 31
0.0
  0
LINE
  5
169
  8
ZUWAKU
 62
     4
 10
2372.691305933663
 20
-2048.072460348457
 30
0.0
 11
2375.295922271665
 21
-2048.49579382687
 31
0.0
  0
LINE
  5
16A
  8
ZUWAKU
 62
     4
 10
2375.295922271665
 20
-2048.49579382687
 30
0.0
 11
2377.911790516481
 21
-2048.756040472992
 31
0.0
  0
LINE
  5
16B
  8
ZUWAKU
 62
     4
 10
2377.911790516481
 20
-2048.756040472992
 30
0.0
 11
2380.519002331243
 21
-2048.85121965276
 31
0.0
  0
LINE
  5
16C
  8
ZUWAKU
 62
     4
 10
2380.519002331243
 20
-2048.85121965276
 30
0.0
 11
2383.09771525977
 21
-2048.780606995105
 31
0.0
  0
LINE
  5
16D
  8
ZUWAKU
 62
     4
 10
2383.09771525977
 20
-2048.780606995105
 30
0.0
 11
2385.628303739614
 21
-2048.544739905011
 31
0.0
  0
LINE
  5
16E
  8
ZUWAKU
 62
     4
 10
2385.628303739614
 20
-2048.544739905011
 30
0.0
 11
2388.09150846443
 21
-2048.145413473455
 31
0.0
  0
LINE
  5
16F
  8
ZUWAKU
 62
     4
 10
2388.09150846443
 20
-2048.145413473455
 30
0.0
 11
2390.46858295893
 21
-2047.585666815675
 31
0.0
  0
LINE
  5
170
  8
ZUWAKU
 62
     4
 10
2390.46858295893
 20
-2047.585666815675
 30
0.0
 11
2392.741436250902
 21
-2046.86975994175
 31
0.0
  0
LINE
  5
171
  8
ZUWAKU
 62
     4
 10
2392.741436250902
 20
-2046.86975994175
 30
0.0
 11
2394.892770554405
 21
-2046.003141335267
 31
0.0
  0
LINE
  5
172
  8
ZUWAKU
 62
     4
 10
2394.892770554405
 20
-2046.003141335267
 30
0.0
 11
2396.906212916377
 21
-2044.992406487069
 31
0.0
  0
LINE
  5
173
  8
ZUWAKU
 62
     4
 10
2396.906212916377
 20
-2044.992406487069
 30
0.0
 11
2398.766439824698
 21
-2043.845247699686
 31
0.0
  0
LINE
  5
174
  8
ZUWAKU
 62
     4
 10
2398.766439824698
 20
-2043.845247699686
 30
0.0
 11
2400.459293829355
 21
-2042.570395544145
 31
0.0
  0
LINE
  5
175
  8
ZUWAKU
 62
     4
 10
2400.459293829355
 20
-2042.570395544145
 30
0.0
 11
2401.971891289202
 21
-2041.17755241511
 31
0.0
  0
LINE
  5
176
  8
ZUWAKU
 62
     4
 10
2401.971891289202
 20
-2041.17755241511
 30
0.0
 11
2402.393541697174
 21
-2040.698630391422
 31
0.0
  0
LINE
  5
177
  8
ZUWAKU
 62
     4
 10
2403.693115715917
 20
-2039.106175914525
 30
0.0
 11
2404.411728927197
 21
-2038.081112052877
 31
0.0
  0
LINE
  5
178
  8
ZUWAKU
 62
     4
 10
2404.411728927197
 20
-2038.081112052877
 30
0.0
 11
2404.990859958405
 21
-2037.010363928722
 31
0.0
  0
LINE
  5
179
  8
ZUWAKU
 62
     4
 10
2405.836256787804
 20
-2035.094636048192
 30
0.0
 11
2406.011819506691
 21
-2034.650010386469
 31
0.0
  0
LINE
  5
17A
  8
ZUWAKU
 62
     4
 10
2406.011819506691
 20
-2034.650010386469
 30
0.0
 11
2406.480723927739
 21
-2032.841228112485
 31
0.0
  0
LINE
  5
17B
  8
ZUWAKU
 62
     4
 10
2404.564185192517
 20
-2032.468690720656
 30
0.0
 11
2404.791340468753
 21
-2030.735493177073
 31
0.0
  0
LINE
  5
17C
  8
ZUWAKU
 62
     4
 10
2404.791340468753
 20
-2030.735493177073
 30
0.0
 11
2404.80526970949
 21
-2028.97437541314
 31
0.0
  0
LINE
  5
17D
  8
ZUWAKU
 62
     4
 10
2404.80526970949
 20
-2028.97437541314
 30
0.0
 11
2404.605866904791
 21
-2027.1987405984
 31
0.0
  0
LINE
  5
17E
  8
ZUWAKU
 62
     4
 10
2404.605866904791
 20
-2027.1987405984
 30
0.0
 11
2404.194649630415
 21
-2025.422102386011
 31
0.0
  0
LINE
  5
17F
  8
ZUWAKU
 62
     4
 10
2404.194649630415
 20
-2025.422102386011
 30
0.0
 11
2403.657174161489
 21
-2023.892552240765
 31
0.0
  0
LINE
  5
180
  8
ZUWAKU
 62
     4
 10
2402.839396373418
 20
-2022.106558566046
 30
0.0
 11
2402.750878337406
 21
-2021.919805657705
 31
0.0
  0
LINE
  5
181
  8
ZUWAKU
 62
     4
 10
2402.750878337406
 20
-2021.919805657705
 30
0.0
 11
2401.729312290097
 21
-2020.220801734642
 31
0.0
  0
LINE
  5
182
  8
ZUWAKU
 62
     4
 10
2401.729312290097
 20
-2020.220801734642
 30
0.0
 11
2400.493971939973
 21
-2018.541476050961
 31
0.0
  0
LINE
  5
183
  8
ZUWAKU
 62
     4
 10
2398.643071631893
 20
-2016.526591363485
 30
0.0
 11
2397.563337113395
 21
-2015.486051266775
 31
0.0
  0
LINE
  5
184
  8
ZUWAKU
 62
     4
 10
2397.563337113395
 20
-2015.486051266775
 30
0.0
 11
2395.842823765486
 21
-2014.068603183106
 31
0.0
  0
LINE
  5
185
  8
ZUWAKU
 62
     4
 10
2395.842823765486
 20
-2014.068603183106
 30
0.0
 11
2393.97718799745
 21
-2012.750079975685
 31
0.0
  0
LINE
  5
186
  8
ZUWAKU
 62
     4
 10
2393.97718799745
 20
-2012.750079975685
 30
0.0
 11
2391.98062842398
 21
-2011.540516402282
 31
0.0
  0
LINE
  5
187
  8
ZUWAKU
 62
     4
 10
2391.98062842398
 20
-2011.540516402282
 30
0.0
 11
2389.868340069006
 21
-2010.449117971999
 31
0.0
  0
LINE
  5
188
  8
ZUWAKU
 62
     4
 10
2389.868340069006
 20
-2010.449117971999
 30
0.0
 11
2387.65639872232
 21
-2009.484190885936
 31
0.0
  0
LINE
  5
189
  8
ZUWAKU
 62
     4
 10
2387.65639872232
 20
-2009.484190885936
 30
0.0
 11
2385.361638593197
 21
-2008.653078821846
 31
0.0
  0
LINE
  5
18A
  8
ZUWAKU
 62
     4
 10
2385.361638593197
 20
-2008.653078821846
 30
0.0
 11
2383.001524191818
 21
-2007.962107044356
 31
0.0
  0
LINE
  5
18B
  8
ZUWAKU
 62
     4
 10
2383.001524191818
 20
-2007.962107044356
 30
0.0
 11
2380.594017413865
 21
-2007.416534265957
 31
0.0
  0
LINE
  5
18C
  8
ZUWAKU
 62
     4
 10
2380.594017413865
 20
-2007.416534265957
 30
0.0
 11
2378.157440839599
 21
-2007.020512624867
 31
0.0
  0
LINE
  5
18D
  8
ZUWAKU
 62
     4
 10
2378.157440839599
 20
-2007.020512624867
 30
0.0
 11
2375.710338288007
 21
-2006.777056084947
 31
0.0
  0
LINE
  5
18E
  8
ZUWAKU
 62
     4
 10
2375.710338288007
 20
-2006.777056084947
 30
0.0
 11
2373.271333687096
 21
-2006.688017497428
 31
0.0
  0
LINE
  5
18F
  8
ZUWAKU
 62
     4
 10
2373.271333687096
 20
-2006.688017497428
 30
0.0
 11
2370.858989334593
 21
-2006.754074499749
 31
0.0
  0
LINE
  5
190
  8
ZUWAKU
 62
     4
 10
2370.858989334593
 20
-2006.754074499749
 30
0.0
 11
2368.491664627646
 21
-2006.974724358228
 31
0.0
  0
LINE
  5
191
  8
ZUWAKU
 62
     4
 10
2368.491664627646
 20
-2006.974724358228
 30
0.0
 11
2366.187376336696
 21
-2007.348287794192
 31
0.0
  0
LINE
  5
192
  8
ZUWAKU
 62
     4
 10
2366.187376336696
 20
-2007.348287794192
 30
0.0
 11
2363.963661487001
 21
-2007.871921764373
 31
0.0
  0
LINE
  5
193
  8
ZUWAKU
 62
     4
 10
2363.963661487001
 20
-2007.871921764373
 30
0.0
 11
2361.837443891289
 21
-2008.541641098044
 31
0.0
  0
LINE
  5
194
  8
ZUWAKU
 62
     4
 10
2361.837443891289
 20
-2008.541641098044
 30
0.0
 11
2359.824905349302
 21
-2009.3523488267
 31
0.0
  0
LINE
  5
195
  8
ZUWAKU
 62
     4
 10
2359.824905349302
 20
-2009.3523488267
 30
0.0
 11
2357.941362494555
 21
-2010.297874974998
 31
0.0
  0
LINE
  5
196
  8
ZUWAKU
 62
     4
 10
2357.941362494555
 20
-2010.297874974998
 30
0.0
 11
2356.20115022548
 21
-2011.371023518037
 31
0.0
  0
LINE
  5
197
  8
ZUWAKU
 62
     4
 10
2356.20115022548
 20
-2011.371023518037
 30
0.0
 11
2354.617512608222
 21
-2012.563627147416
 31
0.0
  0
LINE
  5
198
  8
ZUWAKU
 62
     4
 10
2354.617512608222
 20
-2012.563627147416
 30
0.0
 11
2353.202502081265
 21
-2013.866609429409
 31
0.0
  0
LINE
  5
199
  8
ZUWAKU
 62
     4
 10
2353.202502081265
 20
-2013.866609429409
 30
0.0
 11
2352.216563388703
 21
-2014.986465464073
 31
0.0
  0
LINE
  5
19A
  8
ZUWAKU
 62
     4
 10
2350.849054891897
 20
-2016.894584535445
 30
0.0
 11
2350.070025752972
 21
-2018.334921772138
 31
0.0
  0
LINE
  5
19B
  8
ZUWAKU
 62
     4
 10
2350.070025752972
 20
-2018.334921772138
 30
0.0
 11
2350.005810972826
 21
-2018.49755048566
 31
0.0
  0
LINE
  5
19C
  8
ZUWAKU
 62
     4
 10
2349.330741699288
 20
-2020.329729873946
 30
0.0
 11
2348.984561871019
 21
-2021.665106357672
 31
0.0
  0
LINE
  5
19D
  8
ZUWAKU
 62
     4
 10
2348.984561871019
 20
-2021.665106357672
 30
0.0
 11
2348.757406594783
 21
-2023.398303901255
 31
0.0
  0
LINE
  5
19E
  8
ZUWAKU
 62
     4
 10
2348.757406594783
 20
-2023.398303901255
 30
0.0
 11
2348.743477354046
 21
-2025.159421665209
 31
0.0
  0
LINE
  5
19F
  8
ZUWAKU
 62
     4
 10
2348.743477354046
 20
-2025.159421665209
 30
0.0
 11
2348.942880158745
 21
-2026.935056479928
 31
0.0
  0
LINE
  5
1A0
  8
ZUWAKU
 62
     4
 10
2348.942880158745
 20
-2026.935056479928
 30
0.0
 11
2349.354097433121
 21
-2028.711694692317
 31
0.0
  0
LINE
  5
1A1
  8
ZUWAKU
 62
     4
 10
2349.354097433121
 20
-2028.711694692317
 30
0.0
 11
2349.973999565425
 21
-2030.475815012846
 31
0.0
  0
LINE
  5
1A2
  8
ZUWAKU
 62
     4
 10
2349.973999565425
 20
-2030.475815012846
 30
0.0
 11
2350.79786872612
 21
-2032.213991420644
 31
0.0
  0
LINE
  5
1A3
  8
ZUWAKU
 62
     4
 10
2350.79786872612
 20
-2032.213991420644
 30
0.0
 11
2351.819434773429
 21
-2033.912995343707
 31
0.0
  0
LINE
  5
1A4
  8
ZUWAKU
 62
     4
 10
2351.819434773429
 20
-2033.912995343707
 30
0.0
 11
2353.030922972896
 21
-2035.559896336298
 31
0.0
  0
LINE
  5
1A5
  8
ZUWAKU
 62
     4
 10
2353.030922972896
 20
-2035.559896336298
 30
0.0
 11
2354.4231131678
 21
-2037.142160487444
 31
0.0
  0
LINE
  5
1A6
  8
ZUWAKU
 62
     4
 10
2354.4231131678
 20
-2037.142160487444
 30
0.0
 11
2355.985409950141
 21
-2038.647745811553
 31
0.0
  0
LINE
  5
1A7
  8
ZUWAKU
 62
     4
 10
2355.985409950141
 20
-2038.647745811553
 30
0.0
 11
2357.70592329805
 21
-2040.065193895222
 31
0.0
  0
LINE
  5
1A8
  8
ZUWAKU
 62
     4
 10
2357.70592329805
 20
-2040.065193895222
 30
0.0
 11
2359.571559066086
 21
-2041.383717102644
 31
0.0
  0
LINE
  5
1A9
  8
ZUWAKU
 62
     4
 10
2359.571559066086
 20
-2041.383717102644
 30
0.0
 11
2361.568118639545
 21
-2042.593280676066
 31
0.0
  0
LINE
  5
1AA
  8
ZUWAKU
 62
     4
 10
2361.568118639545
 20
-2042.593280676066
 30
0.0
 11
2363.68040699453
 21
-2043.684679106329
 31
0.0
  0
LINE
  5
1AB
  8
ZUWAKU
 62
     4
 10
2363.68040699453
 20
-2043.684679106329
 30
0.0
 11
2365.892348341206
 21
-2044.649606192392
 31
0.0
  0
LINE
  5
1AC
  8
ZUWAKU
 62
     4
 10
2365.892348341206
 20
-2044.649606192392
 30
0.0
 11
2368.187108470339
 21
-2045.480718256482
 31
0.0
  0
LINE
  5
1AD
  8
ZUWAKU
 62
     4
 10
2368.187108470339
 20
-2045.480718256482
 30
0.0
 11
2370.547222871708
 21
-2046.171690033972
 31
0.0
  0
LINE
  5
1AE
  8
ZUWAKU
 62
     4
 10
2370.547222871708
 20
-2046.171690033972
 30
0.0
 11
2372.954729649671
 21
-2046.717262812371
 31
0.0
  0
LINE
  5
1AF
  8
ZUWAKU
 62
     4
 10
2372.954729649671
 20
-2046.717262812371
 30
0.0
 11
2375.391306223937
 21
-2047.113284453461
 31
0.0
  0
LINE
  5
1B0
  8
ZUWAKU
 62
     4
 10
2375.391306223937
 20
-2047.113284453461
 30
0.0
 11
2377.838408775529
 21
-2047.356740993402
 31
0.0
  0
LINE
  5
1B1
  8
ZUWAKU
 62
     4
 10
2377.838408775529
 20
-2047.356740993402
 30
0.0
 11
2380.27741337644
 21
-2047.4457795809
 31
0.0
  0
LINE
  5
1B2
  8
ZUWAKU
 62
     4
 10
2380.27741337644
 20
-2047.4457795809
 30
0.0
 11
2382.689757728932
 21
-2047.3797225786
 31
0.0
  0
LINE
  5
1B3
  8
ZUWAKU
 62
     4
 10
2382.689757728932
 20
-2047.3797225786
 30
0.0
 11
2385.057082435879
 21
-2047.159072720121
 31
0.0
  0
LINE
  5
1B4
  8
ZUWAKU
 62
     4
 10
2385.057082435879
 20
-2047.159072720121
 30
0.0
 11
2387.36137072684
 21
-2046.785509284136
 31
0.0
  0
LINE
  5
1B5
  8
ZUWAKU
 62
     4
 10
2387.36137072684
 20
-2046.785509284136
 30
0.0
 11
2389.585085576535
 21
-2046.261875313975
 31
0.0
  0
LINE
  5
1B6
  8
ZUWAKU
 62
     4
 10
2389.585085576535
 20
-2046.261875313975
 30
0.0
 11
2391.711303172247
 21
-2045.592155980284
 31
0.0
  0
LINE
  5
1B7
  8
ZUWAKU
 62
     4
 10
2391.711303172247
 20
-2045.592155980284
 30
0.0
 11
2393.723841714234
 21
-2044.781448251648
 31
0.0
  0
LINE
  5
1B8
  8
ZUWAKU
 62
     4
 10
2393.723841714234
 20
-2044.781448251648
 30
0.0
 11
2395.607384568981
 21
-2043.83592210333
 31
0.0
  0
LINE
  5
1B9
  8
ZUWAKU
 62
     4
 10
2395.607384568981
 20
-2043.83592210333
 30
0.0
 11
2397.347596838056
 21
-2042.762773560291
 31
0.0
  0
LINE
  5
1BA
  8
ZUWAKU
 62
     4
 10
2397.347596838056
 20
-2042.762773560291
 30
0.0
 11
2398.931234455314
 21
-2041.570169930912
 31
0.0
  0
LINE
  5
1BB
  8
ZUWAKU
 62
     4
 10
2398.931234455314
 20
-2041.570169930912
 30
0.0
 11
2400.346244982271
 21
-2040.267187648919
 31
0.0
  0
LINE
  5
1BC
  8
ZUWAKU
 62
     4
 10
2400.346244982271
 20
-2040.267187648919
 30
0.0
 11
2400.579477112175
 21
-2040.002276240008
 31
0.0
  0
LINE
  5
1BD
  8
ZUWAKU
 62
     4
 10
2401.895619001137
 20
-2038.416181572619
 30
0.0
 11
2402.628673740403
 21
-2037.37051763262
 31
0.0
  0
LINE
  5
1BE
  8
ZUWAKU
 62
     4
 10
2402.628673740403
 20
-2037.37051763262
 30
0.0
 11
2403.478721310564
 21
-2035.79887530619
 31
0.0
  0
LINE
  5
1BF
  8
ZUWAKU
 62
     4
 10
2403.478721310564
 20
-2035.79887530619
 30
0.0
 11
2403.563829218946
 21
-2035.583333189253
 31
0.0
  0
LINE
  5
1C0
  8
ZUWAKU
 62
     4
 10
2404.285464954137
 20
-2033.543844214525
 30
0.0
 11
2404.564185192517
 21
-2032.468690720656
 31
0.0
  0
LINE
  5
1C1
  8
ZUWAKU
 62
     4
 10
2346.136679656224
 20
-2026.083915803898
 30
0.0
 11
2345.893858498872
 21
-2027.93664421257
 31
0.0
  0
LINE
  5
1C2
  8
ZUWAKU
 62
     4
 10
2345.893858498872
 20
-2027.93664421257
 30
0.0
 11
2345.878968620839
 21
-2029.819218374031
 31
0.0
  0
LINE
  5
1C3
  8
ZUWAKU
 62
     4
 10
2345.878968620839
 20
-2029.819218374031
 30
0.0
 11
2346.092123343102
 21
-2031.717310762171
 31
0.0
  0
LINE
  5
1C4
  8
ZUWAKU
 62
     4
 10
2346.092123343102
 20
-2031.717310762171
 30
0.0
 11
2346.531700429503
 21
-2033.616475747835
 31
0.0
  0
LINE
  5
1C5
  8
ZUWAKU
 62
     4
 10
2346.531700429503
 20
-2033.616475747835
 30
0.0
 11
2347.194354433005
 21
-2035.502259538743
 31
0.0
  0
LINE
  5
1C6
  8
ZUWAKU
 62
     4
 10
2347.194354433005
 20
-2035.502259538743
 30
0.0
 11
2348.075042156509
 21
-2037.360310181552
 31
0.0
  0
LINE
  5
1C7
  8
ZUWAKU
 62
     4
 10
2348.075042156509
 20
-2037.360310181552
 30
0.0
 11
2349.167061034664
 21
-2039.17648678898
 31
0.0
  0
LINE
  5
1C8
  8
ZUWAKU
 62
     4
 10
2349.167061034664
 20
-2039.17648678898
 30
0.0
 11
2350.462100144439
 21
-2040.936967160377
 31
0.0
  0
LINE
  5
1C9
  8
ZUWAKU
 62
     4
 10
2350.462100144439
 20
-2040.936967160377
 30
0.0
 11
2351.950303456236
 21
-2042.628352977103
 31
0.0
  0
LINE
  5
1CA
  8
ZUWAKU
 62
     4
 10
2351.950303456236
 20
-2042.628352977103
 30
0.0
 11
2353.620344844253
 21
-2044.237771771858
 31
0.0
  0
LINE
  5
1CB
  8
ZUWAKU
 62
     4
 10
2353.620344844253
 20
-2044.237771771858
 30
0.0
 11
2355.459514285124
 21
-2045.752974895762
 31
0.0
  0
LINE
  5
1CC
  8
ZUWAKU
 62
     4
 10
2355.459514285124
 20
-2045.752974895762
 30
0.0
 11
2357.453814588881
 21
-2047.162430738189
 31
0.0
  0
LINE
  5
1CD
  8
ZUWAKU
 62
     4
 10
2357.453814588881
 20
-2047.162430738189
 30
0.0
 11
2359.588067926029
 21
-2048.455412489081
 31
0.0
  0
LINE
  5
1CE
  8
ZUWAKU
 62
     4
 10
2359.588067926029
 20
-2048.455412489081
 30
0.0
 11
2361.846031339978
 21
-2049.622079776617
 31
0.0
  0
LINE
  5
1CF
  8
ZUWAKU
 62
     4
 10
2361.846031339978
 20
-2049.622079776617
 30
0.0
 11
2364.210520365734
 21
-2050.653553558274
 31
0.0
  0
LINE
  5
1D0
  8
ZUWAKU
 62
     4
 10
2364.210520365734
 20
-2050.653553558274
 30
0.0
 11
2366.663539814117
 21
-2051.541983695739
 31
0.0
  0
LINE
  5
1D1
  8
ZUWAKU
 62
     4
 10
2366.663539814117
 20
-2051.541983695739
 30
0.0
 11
2369.18642072593
 21
-2052.280608699265
 31
0.0
  0
LINE
  5
1D2
  8
ZUWAKU
 62
     4
 10
2369.18642072593
 20
-2052.280608699265
 30
0.0
 11
2371.75996245409
 21
-2052.863807186533
 31
0.0
  0
LINE
  5
1D3
  8
ZUWAKU
 62
     4
 10
2371.75996245409
 20
-2052.863807186533
 30
0.0
 11
2374.364578792102
 21
-2053.287140664926
 31
0.0
  0
LINE
  5
1D4
  8
ZUWAKU
 62
     4
 10
2374.364578792102
 20
-2053.287140664926
 30
0.0
 11
2376.980447036908
 21
-2053.547387311047
 31
0.0
  0
LINE
  5
1D5
  8
ZUWAKU
 62
     4
 10
2376.980447036908
 20
-2053.547387311047
 30
0.0
 11
2379.58765885167
 21
-2053.642566490816
 31
0.0
  0
LINE
  5
1D6
  8
ZUWAKU
 62
     4
 10
2379.58765885167
 20
-2053.642566490816
 30
0.0
 11
2382.166371780207
 21
-2053.571953833161
 31
0.0
  0
LINE
  5
1D7
  8
ZUWAKU
 62
     4
 10
2382.166371780207
 20
-2053.571953833161
 30
0.0
 11
2384.696960260052
 21
-2053.336086743067
 31
0.0
  0
LINE
  5
1D8
  8
ZUWAKU
 62
     4
 10
2384.696960260052
 20
-2053.336086743067
 30
0.0
 11
2387.160164984857
 21
-2052.93676031151
 31
0.0
  0
LINE
  5
1D9
  8
ZUWAKU
 62
     4
 10
2387.160164984857
 20
-2052.93676031151
 30
0.0
 11
2389.537239479357
 21
-2052.377013653731
 31
0.0
  0
LINE
  5
1DA
  8
ZUWAKU
 62
     4
 10
2389.537239479357
 20
-2052.377013653731
 30
0.0
 11
2391.810092771329
 21
-2051.661106779806
 31
0.0
  0
LINE
  5
1DB
  8
ZUWAKU
 62
     4
 10
2391.810092771329
 20
-2051.661106779806
 30
0.0
 11
2393.961427074833
 21
-2050.794488173323
 31
0.0
  0
LINE
  5
1DC
  8
ZUWAKU
 62
     4
 10
2393.961427074833
 20
-2050.794488173323
 30
0.0
 11
2395.974869436805
 21
-2049.783753325125
 31
0.0
  0
LINE
  5
1DD
  8
ZUWAKU
 62
     4
 10
2395.974869436805
 20
-2049.783753325125
 30
0.0
 11
2397.835096345125
 21
-2048.636594537742
 31
0.0
  0
LINE
  5
1DE
  8
ZUWAKU
 62
     4
 10
2397.835096345125
 20
-2048.636594537742
 30
0.0
 11
2399.527950349782
 21
-2047.361742382201
 31
0.0
  0
LINE
  5
1DF
  8
ZUWAKU
 62
     4
 10
2399.527950349782
 20
-2047.361742382201
 30
0.0
 11
2401.025201520044
 21
-2045.983030556837
 31
0.0
  0
LINE
  5
1E0
  8
ZUWAKU
 62
     4
 10
2397.494698802851
 20
-2026.753078063229
 30
0.0
 11
2404.285464954137
 21
-2033.543844214525
 31
0.0
  0
LINE
  5
1E1
  8
ZUWAKU
 62
     4
 10
2405.836256787804
 20
-2035.094636048192
 30
0.0
 11
2415.777510405108
 21
-2045.035889665486
 31
0.0
  0
LINE
  5
1E2
  8
ZUWAKU
 62
     4
 10
2396.114136447876
 20
-2028.133640418204
 30
0.0
 11
2403.563829218946
 21
-2035.583333189253
 31
0.0
  0
LINE
  5
1E3
  8
ZUWAKU
 62
     4
 10
2404.990859958405
 20
-2037.010363928722
 30
0.0
 11
2407.901912826932
 21
-2039.921416797239
 31
0.0
  0
LINE
  5
1E4
  8
ZUWAKU
 62
     4
 10
2407.431863603001
 20
-2035.309680508414
 30
0.0
 11
2418.599428173034
 21
-2046.477245078437
 31
0.0
  0
LINE
  5
1E5
  8
ZUWAKU
 62
     4
 10
2332.315858560687
 20
-2014.171811465132
 30
0.0
 11
2331.594002591758
 21
-2017.885438489078
 31
0.0
  0
LINE
  5
1E6
  8
ZUWAKU
 62
     4
 10
2349.734608029255
 20
-2013.571420226828
 30
0.0
 11
2350.877958331109
 21
-2012.272771796737
 31
0.0
  0
LINE
  5
1E7
  8
ZUWAKU
 62
     4
 10
2350.877958331109
 20
-2012.272771796737
 30
0.0
 11
2352.463666039917
 21
-2010.81260665335
 31
0.0
  0
LINE
  5
1E8
  8
ZUWAKU
 62
     4
 10
2352.463666039917
 20
-2010.81260665335
 30
0.0
 11
2354.231288094716
 21
-2009.481448277881
 31
0.0
  0
LINE
  5
1E9
  8
ZUWAKU
 62
     4
 10
2354.231288094716
 20
-2009.481448277881
 30
0.0
 11
2356.166442559036
 21
-2008.288083404608
 31
0.0
  0
LINE
  5
1EA
  8
ZUWAKU
 62
     4
 10
2356.166442559036
 20
-2008.288083404608
 30
0.0
 11
2358.253934545634
 21
-2007.24017613096
 31
0.0
  0
LINE
  5
1EB
  8
ZUWAKU
 62
     4
 10
2358.253934545634
 20
-2007.24017613096
 30
0.0
 11
2360.477791424407
 21
-2006.344343369782
 31
0.0
  0
LINE
  5
1EC
  8
ZUWAKU
 62
     4
 10
2360.477791424407
 20
-2006.344343369782
 30
0.0
 11
2362.821293050359
 21
-2005.606183573465
 31
0.0
  0
LINE
  5
1ED
  8
ZUWAKU
 62
     4
 10
2362.821293050359
 20
-2005.606183573465
 30
0.0
 11
2365.267015217442
 21
-2005.030271959407
 31
0.0
  0
LINE
  5
1EE
  8
ZUWAKU
 62
     4
 10
2365.267015217442
 20
-2005.030271959407
 30
0.0
 11
2367.7968937718
 21
-2004.620136591758
 31
0.0
  0
LINE
  5
1EF
  8
ZUWAKU
 62
     4
 10
2367.7968937718
 20
-2004.620136591758
 30
0.0
 11
2370.39231011694
 21
-2004.378227128499
 31
0.0
  0
LINE
  5
1F0
  8
ZUWAKU
 62
     4
 10
2370.39231011694
 20
-2004.378227128499
 30
0.0
 11
2373.034195477161
 21
-2004.305884625986
 31
0.0
  0
LINE
  5
1F1
  8
ZUWAKU
 62
     4
 10
2373.034195477161
 20
-2004.305884625986
 30
0.0
 11
2375.703150020766
 21
-2004.403317793036
 31
0.0
  0
LINE
  5
1F2
  8
ZUWAKU
 62
     4
 10
2375.703150020766
 20
-2004.403317793036
 30
0.0
 11
2378.379572778267
 21
-2004.669588866763
 31
0.0
  0
LINE
  5
1F3
  8
ZUWAKU
 62
     4
 10
2378.379572778267
 20
-2004.669588866763
 30
0.0
 11
2381.04379857462
 21
-2005.102610789087
 31
0.0
  0
LINE
  5
1F4
  8
ZUWAKU
 62
     4
 10
2381.04379857462
 20
-2005.102610789087
 30
0.0
 11
2383.676238585102
 21
-2005.699156403688
 31
0.0
  0
LINE
  5
1F5
  8
ZUWAKU
 62
     4
 10
2383.676238585102
 20
-2005.699156403688
 30
0.0
 11
2386.257521453701
 21
-2006.45487977493
 31
0.0
  0
LINE
  5
1F6
  8
ZUWAKU
 62
     4
 10
2386.257521453701
 20
-2006.45487977493
 30
0.0
 11
2388.768632121911
 21
-2007.364349285105
 31
0.0
  0
LINE
  5
1F7
  8
ZUWAKU
 62
     4
 10
2388.768632121911
 20
-2007.364349285105
 30
0.0
 11
2391.191045595093
 21
-2008.421091760405
 31
0.0
  0
LINE
  5
1F8
  8
ZUWAKU
 62
     4
 10
2391.191045595093
 20
-2008.421091760405
 30
0.0
 11
2393.506852846247
 21
-2009.617646384569
 31
0.0
  0
LINE
  5
1F9
  8
ZUWAKU
 62
     4
 10
2393.506852846247
 20
-2009.617646384569
 30
0.0
 11
2395.698875982947
 21
-2010.945626462641
 31
0.0
  0
LINE
  5
1FA
  8
ZUWAKU
 62
     4
 10
2395.698875982947
 20
-2010.945626462641
 30
0.0
 11
2397.750769801174
 21
-2012.395786062299
 31
0.0
  0
LINE
  5
1FB
  8
ZUWAKU
 62
     4
 10
2397.750769801174
 20
-2012.395786062299
 30
0.0
 11
2399.647107145204
 21
-2013.958087068303
 31
0.0
  0
LINE
  5
1FC
  8
ZUWAKU
 62
     4
 10
2399.647107145204
 20
-2013.958087068303
 30
0.0
 11
2401.123390405194
 21
-2015.380781165613
 31
0.0
  0
LINE
  5
1FD
  8
ZUWAKU
 62
     4
 10
2346.136679656224
 20
-2026.083915803898
 30
0.0
 11
2346.29728714018
 21
-2025.257661927291
 31
0.0
  0
LINE
  5
1FE
  8
ZUWAKU
 62
     4
 10
2407.506694508638
 20
-2027.19957851915
 30
0.0
 11
2407.715072235309
 21
-2029.055132891448
 31
0.0
  0
LINE
  5
1FF
  8
ZUWAKU
 62
     4
 10
2407.715072235309
 20
-2029.055132891448
 30
0.0
 11
2407.699246410219
 21
-2031.056041787857
 31
0.0
  0
LINE
  5
200
  8
ZUWAKU
 62
     4
 10
2407.699246410219
 20
-2031.056041787857
 30
0.0
 11
2407.44865124003
 21
-2032.9680860098
 31
0.0
  0
LINE
  5
201
  8
ZUWAKU
 62
     4
 10
2407.44865124003
 20
-2032.9680860098
 30
0.0
 11
2407.163875412878
 21
-2034.433130635022
 31
0.0
  0
ARC
  5
202
  8
ZUWAKU
 62
     4
 10
2408.122144780489
 20
-2034.619399330926
 30
0.0
 40
0.9762050030506404
 50
168.9999999999997
 51
224.9999999999998
  0
LINE
  5
203
  8
ZUWAKU
 62
     4
 10
2418.203643225051
 20
-2050.768611715165
 30
0.0
 11
2418.867416363158
 21
-2047.353794951829
 31
0.0
  0
ARC
  5
204
  8
ZUWAKU
 62
     4
 10
2417.909146995547
 20
-2047.167526255925
 30
0.0
 40
0.9762050030506404
 50
349.0000000000001
 51
405.0000000000001
  0
ARC
  5
205
  8
ZUWAKU
 62
     4
 10
2397.494698802851
 20
-2026.753078063229
 30
0.0
 40
1.952410006101281
 50
114.9999999999996
 51
225.0
  0
ARC
  5
206
  8
ZUWAKU
 62
     4
 10
2397.494698802851
 20
-2026.753078063229
 30
0.0
 40
2.928615009151895
 50
138.0853946908566
 51
168.9999999999998
  0
ARC
  5
207
  8
ZUWAKU
 62
     4
 10
2394.588961023759
 20
-2024.144571347328
 30
0.0
 40
0.9762050030506404
 50
318.0853946908566
 51
448.1000000000001
  0
LINE
  5
208
  8
ZUWAKU
 62
     4
 10
2350.069259109381
 20
-2027.472372127581
 30
0.0
 11
2350.29298861921
 21
-2028.438981317342
 31
0.0
  0
LINE
  5
209
  8
ZUWAKU
 62
     4
 10
2350.29298861921
 20
-2028.438981317342
 30
0.0
 11
2350.87803943299
 21
-2030.103921596355
 31
0.0
  0
LINE
  5
20A
  8
ZUWAKU
 62
     4
 10
2350.87803943299
 20
-2030.103921596355
 30
0.0
 11
2351.659341221712
 21
-2031.752290538067
 31
0.0
  0
LINE
  5
20B
  8
ZUWAKU
 62
     4
 10
2351.659341221712
 20
-2031.752290538067
 30
0.0
 11
2352.632676221316
 21
-2033.371079638529
 31
0.0
  0
LINE
  5
20C
  8
ZUWAKU
 62
     4
 10
2352.632676221316
 20
-2033.371079638529
 30
0.0
 11
2353.792001905027
 21
-2034.947070737816
 31
0.0
  0
LINE
  5
20D
  8
ZUWAKU
 62
     4
 10
2353.792001905027
 20
-2034.947070737816
 30
0.0
 11
2355.129459519224
 21
-2036.467129738634
 31
0.0
  0
LINE
  5
20E
  8
ZUWAKU
 62
     4
 10
2355.129459519224
 20
-2036.467129738634
 30
0.0
 11
2356.635458355635
 21
-2037.918460735331
 31
0.0
  0
LINE
  5
20F
  8
ZUWAKU
 62
     4
 10
2356.635458355635
 20
-2037.918460735331
 30
0.0
 11
2358.298803800385
 21
-2039.2888109369
 31
0.0
  0
LINE
  5
210
  8
ZUWAKU
 62
     4
 10
2358.298803800385
 20
-2039.2888109369
 30
0.0
 11
2360.106846053951
 21
-2040.566630387069
 31
0.0
  0
LINE
  5
211
  8
ZUWAKU
 62
     4
 10
2360.106846053951
 20
-2040.566630387069
 30
0.0
 11
2362.045635827858
 21
-2041.741195633312
 31
0.0
  0
LINE
  5
212
  8
ZUWAKU
 62
     4
 10
2362.045635827858
 20
-2041.741195633312
 30
0.0
 11
2364.100080345648
 21
-2042.802706726967
 31
0.0
  0
LINE
  5
213
  8
ZUWAKU
 62
     4
 10
2364.100080345648
 20
-2042.802706726967
 30
0.0
 11
2366.254097244898
 21
-2043.742365119366
 31
0.0
  0
LINE
  5
214
  8
ZUWAKU
 62
     4
 10
2366.254097244898
 20
-2043.742365119366
 30
0.0
 11
2368.490766154194
 21
-2044.552437810768
 31
0.0
  0
LINE
  5
215
  8
ZUWAKU
 62
     4
 10
2368.490766154194
 20
-2044.552437810768
 30
0.0
 11
2370.792478598787
 21
-2045.226311220521
 31
0.0
  0
LINE
  5
216
  8
ZUWAKU
 62
     4
 10
2370.792478598787
 20
-2045.226311220521
 30
0.0
 11
2373.141087094418
 21
-2045.758536871607
 31
0.0
  0
LINE
  5
217
  8
ZUWAKU
 62
     4
 10
2373.141087094418
 20
-2045.758536871607
 30
0.0
 11
2375.518054210344
 21
-2046.144870068746
 31
0.0
  0
LINE
  5
218
  8
ZUWAKU
 62
     4
 10
2375.518054210344
 20
-2046.144870068746
 30
0.0
 11
2377.90460224925
 21
-2046.382302181102
 31
0.0
  0
LINE
  5
219
  8
ZUWAKU
 62
     4
 10
2377.90460224925
 20
-2046.382302181102
 30
0.0
 11
2380.281864121308
 21
-2046.469086781318
 31
0.0
  0
LINE
  5
21A
  8
ZUWAKU
 62
     4
 10
2380.281864121308
 20
-2046.469086781318
 30
0.0
 11
2382.631036042127
 21
-2046.404759623855
 31
0.0
  0
LINE
  5
21B
  8
ZUWAKU
 62
     4
 10
2382.631036042127
 20
-2046.404759623855
 30
0.0
 11
2384.933532883758
 21
-2046.190152138562
 31
0.0
  0
LINE
  5
21C
  8
ZUWAKU
 62
     4
 10
2384.933532883758
 20
-2046.190152138562
 30
0.0
 11
2387.171147345176
 21
-2045.827397638649
 31
0.0
  0
LINE
  5
21D
  8
ZUWAKU
 62
     4
 10
2387.171147345176
 20
-2045.827397638649
 30
0.0
 11
2389.326214522278
 21
-2045.319928624766
 31
0.0
  0
LINE
  5
21E
  8
ZUWAKU
 62
     4
 10
2389.326214522278
 20
-2045.319928624766
 30
0.0
 11
2391.38178378402
 21
-2044.672462213488
 31
0.0
  0
LINE
  5
21F
  8
ZUWAKU
 62
     4
 10
2392.858126420145
 20
-2044.077749436441
 30
0.0
 11
2391.38178378402
 21
-2044.672462213488
 31
0.0
  0
LINE
  5
220
  8
ZUWAKU
 62
     4
 10
2394.717192435081
 20
-2032.459386723027
 30
0.0
 11
2396.916760515943
 21
-2034.658954803889
 31
0.0
  0
LINE
  5
221
  8
ZUWAKU
 62
     4
 10
2394.619890700008
 20
-2026.194271975475
 30
0.0
 11
2393.9132278647
 21
-2029.829737102831
 31
0.0
  0
ARC
  5
222
  8
ZUWAKU
 62
     4
 10
2396.788035967534
 20
-2030.388543190565
 30
0.0
 40
2.928615009151921
 50
168.9999999999998
 51
224.9999999999996
  0
LINE
  5
223
  8
ZUWAKU
 62
     4
 10
2336.141061465804
 20
-2014.45318614166
 30
0.0
 11
2349.937485408791
 21
-2014.910860660774
 31
0.0
  0
LINE
  5
224
  8
ZUWAKU
 62
     4
 10
2352.216563388703
 20
-2014.986465464073
 30
0.0
 11
2398.643071631893
 21
-2016.526591363485
 31
0.0
  0
LINE
  5
225
  8
ZUWAKU
 62
     4
 10
2400.936228632107
 20
-2016.602663216005
 30
0.0
 11
2416.49474627564
 21
-2017.118792403527
 31
0.0
  0
LINE
  5
226
  8
ZUWAKU
 62
     4
 10
2416.646206682224
 20
-2017.863244085876
 30
0.0
 11
2405.287062409592
 21
-2023.135983305382
 31
0.0
  0
LINE
  5
227
  8
ZUWAKU
 62
     4
 10
2403.657174161489
 20
-2023.892552240765
 30
0.0
 11
2397.494698802851
 21
-2026.753078063229
 31
0.0
  0
ARC
  5
228
  8
ZUWAKU
 62
     4
 10
2416.481799775233
 20
-2017.509059723965
 30
0.0
 40
0.3904820012202561
 50
294.9000000000007
 51
448.0999999999997
  0
LINE
  5
229
  8
ZUWAKU
 62
     4
 10
2415.361461699999
 20
-2045.67654848972
 30
0.0
 11
2402.393541697174
 21
-2040.698630391422
 31
0.0
  0
LINE
  5
22A
  8
ZUWAKU
 62
     4
 10
2400.579477112185
 20
-2040.002276240008
 30
0.0
 11
2349.330741699288
 21
-2020.329729873946
 31
0.0
  0
LINE
  5
22B
  8
ZUWAKU
 62
     4
 10
2347.499825399625
 20
-2019.626906955342
 30
0.0
 11
2335.988178731287
 21
-2015.207999815333
 31
0.0
  0
ARC
  5
22C
  8
ZUWAKU
 62
     4
 10
2336.128114965397
 20
-2014.843453462098
 30
0.0
 40
0.3904820012202561
 50
90.00000000000003
 51
249.0000000000023
  0
ARC
  5
22D
  8
ZUWAKU
 62
     4
 10
2415.501397934109
 20
-2045.312002136485
 30
0.0
 40
0.3904820012202561
 50
249.0000000000006
 51
405.0
  0
LINE
  5
22E
  8
ZUWAKU
 62
     4
 10
2401.768429381205
 20
-2015.653528157913
 30
0.0
 11
2419.15338804899
 21
-2016.230246634454
 31
0.0
  0
ARC
  5
22F
  8
ZUWAKU
 62
     4
 10
2401.800795632228
 20
-2014.677859856808
 30
0.0
 40
0.9762050030506404
 50
226.0590228224399
 51
268.1000000000001
  0
LINE
  5
230
  8
ZUWAKU
 62
     4
 10
2333.30649417932
 20
-2013.382411859931
 30
0.0
 11
2348.96954251677
 21
-2013.902008687718
 31
0.0
  0
ARC
  5
231
  8
ZUWAKU
 62
     4
 10
2333.274127928298
 20
-2014.358080161036
 30
0.0
 40
0.9762050030506404
 50
88.10000000000028
 51
168.9999999999999
  0
ARC
  5
232
  8
ZUWAKU
 62
     4
 10
2349.001908767792
 20
-2012.926340386634
 30
0.0
 40
0.9762050030506404
 50
268.1000000000004
 51
318.638806595188
  0
LINE
  5
233
  8
ZUWAKU
 62
     4
 10
2420.079291165589
 20
-2017.392183631463
 30
0.0
 11
2419.482897855428
 21
-2020.460361230297
 31
0.0
  0
ARC
  5
234
  8
ZUWAKU
 62
     4
 10
2419.121021797968
 20
-2017.205914935559
 30
0.0
 40
0.9762050030506404
 50
349.0000000000001
 51
448.1
  0
LINE
  5
235
  8
ZUWAKU
 62
     4
 10
2418.935645755291
 20
-2021.159553439119
 30
0.0
 11
2408.065784319047
 21
-2026.205175127699
 31
0.0
  0
ARC
  5
236
  8
ZUWAKU
 62
     4
 10
2418.524628487817
 20
-2020.274092534393
 30
0.0
 40
0.9762050030506404
 50
294.9000000000004
 51
349.0000000000001
  0
ARC
  5
237
  8
ZUWAKU
 62
     4
 10
2408.47680158652
 20
-2027.090636032446
 30
0.0
 40
0.9762050030506404
 50
114.9
 51
186.40743915255
  0
LINE
  5
238
  8
ZUWAKU
 62
     4
 10
2407.485864121823
 20
-2040.562075621473
 30
0.0
 11
2403.693115715917
 21
-2039.106175914525
 31
0.0
  0
ARC
  5
239
  8
ZUWAKU
 62
     4
 10
2407.625800355932
 20
-2040.197529268238
 30
0.0
 40
0.3904820012202561
 50
248.999999999998
 51
405.000000000001
  0
LINE
  5
23A
  8
ZUWAKU
 62
     4
 10
2401.895619001137
 20
-2038.416181572619
 30
0.0
 11
2350.005810972826
 21
-2018.49755048566
 31
0.0
  0
LINE
  5
23B
  8
ZUWAKU
 62
     4
 10
2348.200048601701
 20
-2017.80438325557
 30
0.0
 11
2345.355161236817
 21
-2016.712333312456
 31
0.0
  0
LINE
  5
23C
  8
ZUWAKU
 62
     4
 10
2396.500711810844
 20
-2035.299613628123
 30
0.0
 11
2367.504636208938
 21
-2024.169063047388
 31
0.0
  0
ARC
  5
23D
  8
ZUWAKU
 62
     4
 10
2396.640648044954
 20
-2034.935067274888
 30
0.0
 40
0.3904820012202561
 50
249.0000000000001
 51
404.9999999999984
  0
LINE
  5
23E
  8
ZUWAKU
 62
     4
 10
2332.202431374088
 20
-2018.98307306809
 30
0.0
 11
2345.688858357849
 21
-2024.160027348279
 31
0.0
  0
ARC
  5
23F
  8
ZUWAKU
 62
     4
 10
2345.339017772569
 20
-2025.071393231387
 30
0.0
 40
0.9762050030506404
 50
349.0000000000001
 51
429.0000000000001
  0
LINE
  5
240
  8
ZUWAKU
 62
     4
 10
2351.370161509359
 20
-2026.340875300288
 30
0.0
 11
2392.84320677284
 21
-2042.260885800323
 31
0.0
  0
ARC
  5
241
  8
ZUWAKU
 62
     4
 10
2392.493366187559
 20
-2043.172251683431
 30
0.0
 40
0.9762050030506404
 50
291.9409771775847
 51
429.0000000000001
  0
LINE
  5
242
  8
ZUWAKU
 62
     4
 10
2402.036310312948
 20
-2045.789787619737
 30
0.0
 11
2416.895533272159
 21
-2051.493708902348
 31
0.0
  0
ARC
  5
243
  8
ZUWAKU
 62
     4
 10
2417.24537385744
 20
-2050.58234301924
 30
0.0
 40
0.9762050030506404
 50
249.0000000000001
 51
349.0000000000001
  0
ARC
  5
244
  8
ZUWAKU
 62
     4
 10
2401.686469727667
 20
-2046.701153502824
 30
0.0
 40
0.9762050030506404
 50
69.00000000000006
 51
132.6397603242119
  0
ARC
  5
245
  8
ZUWAKU
 62
     4
 10
2351.020320924079
 20
-2027.252241183375
 30
0.0
 40
0.9762050030506404
 50
69.00000000000006
 51
193.0320838540856
  0
ARC
  5
246
  8
ZUWAKU
 62
     4
 10
2332.552271959369
 20
-2018.071707184983
 30
0.0
 40
0.9762050030506404
 50
168.9999999999999
 51
249.0000000000001
  0
LINE
  5
247
  8
ZUWAKU
 62
     4
 10
2350.849054891897
 20
-2016.894584535445
 30
0.0
 11
2400.493971939973
 21
-2018.541476050961
 31
0.0
  0
LINE
  5
248
  8
ZUWAKU
 62
     4
 10
2345.355161236817
 20
-2016.712333312456
 30
0.0
 11
2348.719866175544
 21
-2016.823952071144
 31
0.0
  0
LINE
  5
249
  8
ZUWAKU
 62
     4
 10
2402.835139626542
 20
-2022.121630431292
 30
0.0
 11
2396.672664267904
 21
-2024.982156253756
 31
0.0
  0
LINE
  5
24A
  8
ZUWAKU
 62
     4
 10
2367.88684304523
 20
-2022.282028863196
 30
0.0
 11
2394.621327274781
 21
-2023.168903046223
 31
0.0
  0
ARC
  5
24B
  8
ZUWAKU
 62
     4
 10
2367.854476794219
 20
-2023.25769716428
 30
0.0
 40
0.9762050030506404
 50
88.10000000000008
 51
249.0000000000001
  0
LINE
  5
24C
  8
ZUWAKU
 62
     4
 10
2383.317870473248
 20
-2013.11874058691
 30
0.0
 11
2382.070180712256
 21
-2012.753453882432
 31
0.0
  0
LINE
  5
24D
  8
ZUWAKU
 62
     4
 10
2382.070180712256
 20
-2012.753453882432
 30
0.0
 11
2379.662673934292
 21
-2012.207881104013
 31
0.0
  0
LINE
  5
24E
  8
ZUWAKU
 62
     4
 10
2379.662673934292
 20
-2012.207881104013
 30
0.0
 11
2377.226097360026
 21
-2011.811859462943
 31
0.0
  0
LINE
  5
24F
  8
ZUWAKU
 62
     4
 10
2377.226097360026
 20
-2011.811859462943
 30
0.0
 11
2374.778994808435
 21
-2011.568402923002
 31
0.0
  0
LINE
  5
250
  8
ZUWAKU
 62
     4
 10
2374.778994808435
 20
-2011.568402923002
 30
0.0
 11
2372.339990207523
 21
-2011.479364335484
 31
0.0
  0
LINE
  5
251
  8
ZUWAKU
 62
     4
 10
2372.339990207523
 20
-2011.479364335484
 30
0.0
 11
2369.927645855031
 21
-2011.545421337804
 31
0.0
  0
LINE
  5
252
  8
ZUWAKU
 62
     4
 10
2369.927645855031
 20
-2011.545421337804
 30
0.0
 11
2367.560321148083
 21
-2011.766071196284
 31
0.0
  0
LINE
  5
253
  8
ZUWAKU
 62
     4
 10
2367.560321148083
 20
-2011.766071196284
 30
0.0
 11
2365.256032857124
 21
-2012.139634632248
 31
0.0
  0
LINE
  5
254
  8
ZUWAKU
 62
     4
 10
2365.256032857124
 20
-2012.139634632248
 30
0.0
 11
2363.829952156212
 21
-2012.475444009671
 31
0.0
  0
LINE
  5
255
  8
ZUWAKU
 62
     4
 10
2364.021340015547
 20
-2014.40132823679
 30
0.0
 11
2383.011213918195
 21
-2015.031287235026
 31
0.0
  0
ARC
  5
256
  8
ZUWAKU
 62
     4
 10
2364.053706266569
 20
-2013.425659935685
 30
0.0
 40
0.9762050030506404
 50
103.2504547662732
 51
268.1000000000001
  0
ARC
  5
257
  8
ZUWAKU
 62
     4
 10
2383.043580169217
 20
-2014.05561893392
 30
0.0
 40
0.9762050030506404
 50
268.1000000000001
 51
433.6815281605993
  0
LINE
  5
258
  8
ZUWAKU
 62
     4
 10
1532.499999999982
 20
-1586.250000000033
 30
0.0
 11
3017.499999999981
 21
-1586.250000000037
 31
0.0
  0
LINE
  5
259
  8
ZUWAKU
 62
     4
 10
1532.499999999986
 20
-1511.251161000038
 30
0.0
 11
1532.499999999982
 21
-1586.250000000037
 31
0.0
  0
LINE
  5
25A
  8
ZUWAKU
 62
     4
 10
1682.499999999987
 20
-1511.251161000038
 30
0.0
 11
1682.499999999982
 21
-1642.500000000032
 31
0.0
  0
LINE
  5
25B
  8
ZUWAKU
 62
     4
 10
2132.49999999998
 20
-1511.251161000039
 30
0.0
 11
2132.499999999983
 21
-1642.500000000032
 31
0.0
  0
LINE
  5
25C
  8
ZUWAKU
 62
     4
 10
2357.499999999982
 20
-1511.25116100004
 30
0.0
 11
2357.499999999982
 21
-1642.500000000032
 31
0.0
  0
LINE
  5
25D
  8
ZUWAKU
 62
     4
 10
2507.49999999998
 20
-1511.25116100004
 30
0.0
 11
2507.499999999982
 21
-1642.500000000032
 31
0.0
  0
LINE
  5
25E
  8
ZUWAKU
 62
     4
 10
1532.499999999982
 20
-1511.251161000038
 30
0.0
 11
3017.499999999981
 21
-1511.251161000042
 31
0.0
  0
LINE
  5
25F
  8
ZUWAKU
 62
     4
 10
1982.499999999985
 20
-1822.500000000033
 30
0.0
 11
1982.499999999985
 21
-1935.000000000033
 31
0.0
  0
LINE
  5
260
  8
ZUWAKU
 62
     4
 10
2274.999999999985
 20
-1822.500000000033
 30
0.0
 11
2274.999999999985
 21
-2092.500000000031
 31
0.0
  0
LINE
  5
261
  8
ZUWAKU
 62
     4
 10
2196.249999999985
 20
-1822.500000000033
 30
0.0
 11
2196.249999999985
 21
-1935.000000000033
 31
0.0
  0
LINE
  5
262
  8
ZUWAKU
 62
     4
 10
2061.249999999985
 20
-1822.500000000033
 30
0.0
 11
2061.249999999985
 21
-1935.000000000033
 31
0.0
  0
TEXT
  5
263
  8
ZUWAKU
 62
     4
 10
2515.749999999983
 20
-1901.250000000032
 30
0.0
 40
45.0
  1
ｍｍ
 50
0.0000000000000496
 41
0.6666666666666666
  7
FDASTYLE0
 72
     5
 11
2587.749999999983
 21
-1901.250000000032
 31
0.0
  0
TEXT
  5
265
  8
ZUWAKU
 62
     4
 10
2426.874999999984
 20
-1830.000000000032
 30
0.0
 40
37.485
  1
単位
 41
0.8
  7
FDASTYLE1
  0
TEXT
  5
266
  8
ZUWAKU
 62
     4
 10
2632.187499999986
 20
-1830.000000000033
 30
0.0
 40
37.485
  1
日付
 41
0.8
  7
FDASTYLE1
  0
TEXT
  5
267
  8
ZUWAKU
 62
     4
 10
1549.374999999983
 20
-1830.000000000033
 30
0.0
 40
37.485
  1
尺度
 41
0.8
  7
FDASTYLE1
  0
TEXT
  5
268
  8
ZUWAKU
 62
     4
 10
1549.374999999983
 20
-1672.500000000033
 30
0.0
 40
37.485
  1
図名
 41
0.8
  7
FDASTYLE1
  0
TEXT
  5
269
  8
ZUWAKU
 62
     4
 10
2632.187499999986
 20
-1672.500000000032
 30
0.0
 40
37.485
  1
図番
 41
0.8
  7
FDASTYLE1
  0
TEXT
  5
26A
  8
ZUWAKU
 62
     4
 10
1547.499999999983
 20
-1996.875000000033
 30
0.0
 40
45.0
  1
表面
 41
0.7225433526011547
  7
FDASTYLE0
 72
     5
 11
1641.249999999982
 21
-1996.875000000033
 31
0.0
  0
TEXT
  5
26B
  8
ZUWAKU
 62
     4
 10
1547.499999999983
 20
-2075.625000000033
 30
0.0
 40
45.0
  1
処理
 41
0.7225433526011547
  7
FDASTYLE0
 72
     5
 11
1641.249999999982
 21
-2075.625000000033
 31
0.0
  0
TEXT
  5
26C
  8
ZUWAKU
 62
     4
 10
53.49999999998227
 20
-2040.000000000033
 30
0.0
 40
45.0
  1
本図は、本製品の取付図であり、バルク貯層容器の安全を保証するものではありません
 41
0.6666666666666666
  7
FDASTYLE0
 72
     5
 11
1457.499999999982
 21
-2040.000000000033
 31
0.0
  0
TEXT
  5
26D
  8
ZUWAKU
 62
     4
 10
1562.499999999982
 20
-1636.875000000035
 30
0.0
 40
45.0
  1
番号
 41
0.7142857142857267
  7
FDASTYLE0
 72
     5
 11
1652.499999999987
 21
-1636.875000000035
 31
0.0
  0
TEXT
  5
26E
  8
ZUWAKU
 62
     4
 10
1712.499999999987
 20
-1636.875000000035
 30
0.0
 40
45.0
  1
品名
 41
0.9154929577464781
  7
FDASTYLE0
 72
     5
 11
2102.499999999984
 21
-1636.875000000035
 31
0.0
  0
TEXT
  5
26F
  8
ZUWAKU
 62
     4
 10
2162.49999999998
 20
-1636.875000000035
 30
0.0
 40
45.0
  1
材質
 41
0.8208955223880613
  7
FDASTYLE0
 72
     5
 11
2327.499999999982
 21
-1636.875000000035
 31
0.0
  0
TEXT
  5
270
  8
ZUWAKU
 62
     4
 10
2387.499999999982
 20
-1636.875000000034
 30
0.0
 40
45.0
  1
個数
 41
0.7142857142857079
  7
FDASTYLE0
 72
     5
 11
2477.49999999998
 21
-1636.875000000034
 31
0.0
  0
TEXT
  5
271
  8
ZUWAKU
 62
     4
 10
2537.49999999998
 20
-1636.875000000035
 30
0.0
 40
45.0
  1
記事
 41
0.9259259259259263
  7
FDASTYLE0
 72
     5
 11
2987.499999999982
 21
-1636.875000000035
 31
0.0
  0
TEXT
  5
272
  8
ZUWAKU
 62
     4
 10
2414.499999999981
 20
-1571.250580500037
 30
0.0
 40
45.0
  1
1
 41
0.8
  7
FDASTYLE0
 72
     5
 11
2450.499999999981
 21
-1571.250580500037
 31
0.0
  0
TEXT
  5
273
  8
ZUWAKU
 62
     4
 10
1589.499999999985
 20
-1571.250580500036
 30
0.0
 40
45.0
  1
1
 41
0.8
  7
FDASTYLE0
 72
     5
 11
1625.499999999985
 21
-1571.250580500036
 31
0.0
  0
TEXT
  5
274
  8
ZUWAKU
 62
     4
 10
2526.99999999998
 20
-1571.250580500041
 30
0.0
 40
45.0
  1
後施工アンカー用基礎
 41
0.6666666666666666
  7
FDASTYLE0
 72
     5
 11
2886.99999999998
 21
-1571.250580500041
 31
0.0
  0
TEXT
  5
275
  8
ZUWAKU
 62
     4
 10
1712.499999999987
 20
-1571.250580500036
 30
0.0
 40
45.0
  1
基礎土台
 41
0.8441558441558418
  7
FDASTYLE0
 72
     5
 11
2102.49999999998
 21
-1571.250580500036
 31
0.0
  0
TEXT
  5
276
  8
ZUWAKU
 62
     4
 10
2147.49999999998
 20
-1571.250580500038
 30
0.0
 40
45.0
  1
コンクリート
 41
0.6435643564356463
  7
FDASTYLE0
 72
     5
 11
2342.499999999982
 21
-1571.250580500038
 31
0.0
  0
TEXT
  5
277
  8
ZUWAKU
 62
     4
 10
2724.062499999983
 20
-1897.500000000033
 30
0.0
 40
37.5
  1
2004.9.17
 41
0.7786885245901631
  7
FDASTYLE0
 72
     5
 11
2961.562499999982
 21
-1897.500000000033
 31
0.0
  0
TEXT
  5
278
  8
ZUWAKU
 62
     4
 10
2088.249999999985
 20
-1901.250000000033
 30
0.0
 40
45.0
  1
岡田
 50
0.0000000000000496
 41
0.6666666666666666
  7
FDASTYLE0
 72
     5
 11
2160.249999999985
 21
-1901.250000000033
 31
0.0
  0
TEXT
  5
279
  8
ZUWAKU
 62
     4
 10
2217.624999999983
 20
-1923.750000000033
 30
0.0
 40
45.0
  1
図
 50
0.0000000000000496
 41
0.6666666666666666
  7
FDASTYLE0
 72
     5
 11
2253.624999999983
 21
-1923.750000000033
 31
0.0
  0
TEXT
  5
27A
  8
ZUWAKU
 62
     4
 10
2003.874999999985
 20
-1923.750000000033
 30
0.0
 40
45.0
  1
図
 50
0.0000000000000496
 41
0.6666666666666666
  7
FDASTYLE0
 72
     5
 11
2039.874999999985
 21
-1923.750000000033
 31
0.0
  0
TEXT
  5
27B
  8
ZUWAKU
 62
     4
 10
2217.624999999983
 20
-1878.750000000032
 30
0.0
 40
45.0
  1
検
 50
0.0000000000000496
 41
0.6666666666666666
  7
FDASTYLE0
 72
     5
 11
2253.624999999983
 21
-1878.750000000032
 31
0.0
  0
TEXT
  5
27C
  8
ZUWAKU
 62
     4
 10
2003.874999999985
 20
-1878.750000000033
 30
0.0
 40
45.0
  1
製
 50
0.0000000000000496
 41
0.6666666666666666
  7
FDASTYLE0
 72
     5
 11
2039.874999999985
 21
-1878.750000000033
 31
0.0
  0
TEXT
  5
27D
  8
ZUWAKU
 62
     2
 10
1645.569024151628
 20
-1770.000000000032
 30
0.0
 40
75.0
  1
SＺＡＭ-150（横型）基礎図
 50
0.0000000000000496
 41
0.5884703196347034
  7
FDASTYLE0
 72
     5
 11
2418.819024151629
 21
-1770.000000000032
 31
0.0
  0
TEXT
  5
27E
  8
ZUWAKU
 62
     2
 10
2480.609602889376
 20
-2010.535636140368
 30
0.0
 40
45.0
  1
株
 50
0.0000000000000623
 41
0.6666666666666666
  7
FDASTYLE0
 72
     5
 11
2516.609602889376
 21
-2010.535636140368
 31
0.0
  0
TEXT
  5
27F
  8
ZUWAKU
 62
     2
 10
2534.609602889379
 20
-2010.535636140368
 30
0.0
 40
45.0
  1
式
 50
0.0000000000000623
 41
0.6666666666666666
  7
FDASTYLE0
 72
     5
 11
2570.609602889379
 21
-2010.535636140368
 31
0.0
  0
TEXT
  5
280
  8
ZUWAKU
 62
     2
 10
2480.609602889376
 20
-2064.53563614038
 30
0.0
 40
45.0
  1
会
 50
0.0000000000000623
 41
0.6666666666666666
  7
FDASTYLE0
 72
     5
 11
2516.609602889376
 21
-2064.53563614038
 31
0.0
  0
TEXT
  5
281
  8
ZUWAKU
 62
     2
 10
2534.609602889379
 20
-2064.53563614038
 30
0.0
 40
45.0
  1
社
 50
0.0000000000000623
 41
0.6666666666666666
  7
FDASTYLE0
 72
     5
 11
2570.609602889379
 21
-2064.53563614038
 31
0.0
  0
LINE
  5
282
  8
ZUWAKU
 62
     6
 10
2346.525974391839
 20
-2026.869669777197
 30
0.0
 11
2346.381709161426
 21
-2027.970415254591
 31
0.0
  0
LINE
  5
283
  8
ZUWAKU
 62
     6
 10
2346.381709161426
 20
-2027.970415254591
 30
0.0
 11
2346.367287256936
 21
-2029.793822048559
 31
0.0
  0
LINE
  5
284
  8
ZUWAKU
 62
     6
 10
2346.367287256936
 20
-2029.793822048559
 30
0.0
 11
2346.57402433593
 21
-2031.634766841288
 31
0.0
  0
LINE
  5
285
  8
ZUWAKU
 62
     6
 10
2346.57402433593
 20
-2031.634766841288
 30
0.0
 11
2347.001146022552
 21
-2033.480119060347
 31
0.0
  0
LINE
  5
286
  8
ZUWAKU
 62
     6
 10
2347.001146022552
 20
-2033.480119060347
 30
0.0
 11
2347.646374366783
 21
-2035.316312830497
 31
0.0
  0
LINE
  5
287
  8
ZUWAKU
 62
     6
 10
2347.646374366783
 20
-2035.316312830497
 30
0.0
 11
2348.505778404304
 21
-2037.129459740273
 31
0.0
  0
LINE
  5
288
  8
ZUWAKU
 62
     6
 10
2348.505778404304
 20
-2037.129459740273
 30
0.0
 11
2349.573681758612
 21
-2038.905528936381
 31
0.0
  0
LINE
  5
289
  8
ZUWAKU
 62
     6
 10
2349.573681758612
 20
-2038.905528936381
 30
0.0
 11
2350.84263961051
 21
-2040.630554361136
 31
0.0
  0
LINE
  5
28A
  8
ZUWAKU
 62
     6
 10
2350.84263961051
 20
-2040.630554361136
 30
0.0
 11
2352.303476631948
 21
-2042.290837602708
 31
0.0
  0
LINE
  5
28B
  8
ZUWAKU
 62
     6
 10
2352.303476631948
 20
-2042.290837602708
 30
0.0
 11
2353.945369047
 21
-2043.873129233747
 31
0.0
  0
LINE
  5
28C
  8
ZUWAKU
 62
     6
 10
2353.945369047
 20
-2043.873129233747
 30
0.0
 11
2355.755954536286
 21
-2045.364783416611
 31
0.0
  0
LINE
  5
28D
  8
ZUWAKU
 62
     6
 10
2355.755954536286
 20
-2045.364783416611
 30
0.0
 11
2357.721458082814
 21
-2046.753887380402
 31
0.0
  0
LINE
  5
28E
  8
ZUWAKU
 62
     6
 10
2357.721458082814
 20
-2046.753887380402
 30
0.0
 11
2359.826826520196
 21
-2048.029369967714
 31
0.0
  0
LINE
  5
28F
  8
ZUWAKU
 62
     6
 10
2359.826826520196
 20
-2048.029369967714
 30
0.0
 11
2362.055868015527
 21
-2049.181093586916
 31
0.0
  0
LINE
  5
290
  8
ZUWAKU
 62
     6
 10
2362.055868015527
 20
-2049.181093586916
 30
0.0
 11
2364.391394817581
 21
-2050.199933021751
 31
0.0
  0
LINE
  5
291
  8
ZUWAKU
 62
     6
 10
2364.391394817581
 20
-2050.199933021751
 30
0.0
 11
2366.815368656045
 21
-2051.077843472882
 31
0.0
  0
LINE
  5
292
  8
ZUWAKU
 62
     6
 10
2366.815368656045
 20
-2051.077843472882
 30
0.0
 11
2369.30904858947
 21
-2051.807919292529
 31
0.0
  0
LINE
  5
293
  8
ZUWAKU
 62
     6
 10
2369.30904858947
 20
-2051.807919292529
 30
0.0
 11
2371.853141176464
 21
-2052.384444216131
 31
0.0
  0
LINE
  5
294
  8
ZUWAKU
 62
     6
 10
2371.853141176464
 20
-2052.384444216131
 30
0.0
 11
2374.427952785311
 21
-2052.802933472568
 31
0.0
  0
LINE
  5
295
  8
ZUWAKU
 62
     6
 10
2374.427952785311
 20
-2052.802933472568
 30
0.0
 11
2377.013543773769
 21
-2053.060167904897
 31
0.0
  0
LINE
  5
296
  8
ZUWAKU
 62
     6
 10
2377.013543773769
 20
-2053.060167904897
 30
0.0
 11
2379.589884224105
 21
-2053.154220091025
 31
0.0
  0
LINE
  5
297
  8
ZUWAKU
 62
     6
 10
2379.589884224105
 20
-2053.154220091025
 30
0.0
 11
2382.137010936795
 21
-2053.084472355798
 31
0.0
  0
LINE
  5
298
  8
ZUWAKU
 62
     6
 10
2382.137010936795
 20
-2053.084472355798
 30
0.0
 11
2384.635185483986
 21
-2052.851626452288
 31
0.0
  0
LINE
  5
299
  8
ZUWAKU
 62
     6
 10
2384.635185483986
 20
-2052.851626452288
 30
0.0
 11
2387.06505329403
 21
-2052.457704488767
 31
0.0
  0
LINE
  5
29A
  8
ZUWAKU
 62
     6
 10
2387.06505329403
 20
-2052.457704488767
 30
0.0
 11
2389.407803952239
 21
-2051.906040309147
 31
0.0
  0
LINE
  5
29B
  8
ZUWAKU
 62
     6
 10
2389.407803952239
 20
-2051.906040309147
 30
0.0
 11
2391.645333077216
 21
-2051.201259896408
 31
0.0
  0
LINE
  5
29C
  8
ZUWAKU
 62
     6
 10
2391.645333077216
 20
-2051.201259896408
 30
0.0
 11
2393.760406093079
 21
-2050.349248367262
 31
0.0
  0
LINE
  5
29D
  8
ZUWAKU
 62
     6
 10
2393.760406093079
 20
-2050.349248367262
 30
0.0
 11
2395.736823642753
 21
-2049.357099731809
 31
0.0
  0
LINE
  5
29E
  8
ZUWAKU
 62
     6
 10
2395.736823642753
 20
-2049.357099731809
 30
0.0
 11
2397.559586773064
 21
-2048.233043987351
 31
0.0
  0
LINE
  5
29F
  8
ZUWAKU
 62
     6
 10
2397.559586773064
 20
-2048.233043987351
 30
0.0
 11
2399.215056752649
 21
-2046.986344941764
 31
0.0
  0
LINE
  5
2A0
  8
ZUWAKU
 62
     6
 10
2399.215056752649
 20
-2046.986344941764
 30
0.0
 11
2400.694567416233
 21
-2045.623969083823
 31
0.0
  0
ARC
  5
2A1
  8
ZUWAKU
 62
     6
 10
2417.909146995547
 20
-2047.167526255925
 30
0.0
 40
0.4881025015253202
 50
348.9999999999993
 51
405.0000000000003
  0
LINE
  5
2A2
  8
ZUWAKU
 62
     6
 10
2418.254287584291
 20
-2046.822385667171
 30
0.0
 11
2406.407883232159
 21
-2034.975981315039
 31
0.0
  0
ARC
  5
2A3
  8
ZUWAKU
 62
     6
 10
2408.122144780489
 20
-2034.619399330926
 30
0.0
 40
1.46430750457596
 50
168.9999999999942
 51
225.0
  0
LINE
  5
2A4
  8
ZUWAKU
 62
     6
 10
2406.684740729072
 20
-2034.339996287059
 30
0.0
 11
2406.966643959646
 21
-2032.889729890107
 31
0.0
  0
LINE
  5
2A5
  8
ZUWAKU
 62
     6
 10
2407.211395747655
 20
-2031.022270745836
 30
0.0
 11
2407.226753599221
 21
-2029.0805292169
 31
0.0
  0
LINE
  5
2A6
  8
ZUWAKU
 62
     6
 10
2401.189859763344
 20
-2016.122706027071
 30
0.0
 11
2399.322082942457
 21
-2014.322729606414
 31
0.0
  0
LINE
  5
2A7
  8
ZUWAKU
 62
     6
 10
2399.322082942457
 20
-2014.322729606414
 30
0.0
 11
2397.454329550002
 21
-2012.78397754147
 31
0.0
  0
LINE
  5
2A8
  8
ZUWAKU
 62
     6
 10
2397.454329550002
 20
-2012.78397754147
 30
0.0
 11
2395.431232489014
 21
-2011.354169820428
 31
0.0
  0
LINE
  5
2A9
  8
ZUWAKU
 62
     6
 10
2395.431232489014
 20
-2011.354169820428
 30
0.0
 11
2393.26809425209
 21
-2010.043688905936
 31
0.0
  0
LINE
  5
2AA
  8
ZUWAKU
 62
     6
 10
2393.26809425209
 20
-2010.043688905936
 30
0.0
 11
2390.981208919544
 21
-2008.862077950106
 31
0.0
  0
LINE
  5
2AB
  8
ZUWAKU
 62
     6
 10
2390.981208919544
 20
-2008.862077950106
 30
0.0
 11
2388.587757670065
 21
-2007.817969821607
 31
0.0
  0
LINE
  5
2AC
  8
ZUWAKU
 62
     6
 10
2388.587757670065
 20
-2007.817969821607
 30
0.0
 11
2386.105692611774
 21
-2006.919019997787
 31
0.0
  0
LINE
  5
2AD
  8
ZUWAKU
 62
     6
 10
2386.105692611774
 20
-2006.919019997787
 30
0.0
 11
2383.553610721563
 21
-2006.171845810424
 31
0.0
  0
LINE
  5
2AE
  8
ZUWAKU
 62
     6
 10
2383.553610721563
 20
-2006.171845810424
 30
0.0
 11
2380.950619852247
 21
-2005.581973759469
 31
0.0
  0
LINE
  5
2AF
  8
ZUWAKU
 62
     6
 10
2380.950619852247
 20
-2005.581973759469
 30
0.0
 11
2378.316198785059
 21
-2005.15379605912
 31
0.0
  0
LINE
  5
2B0
  8
ZUWAKU
 62
     6
 10
2378.316198785059
 20
-2005.15379605912
 30
0.0
 11
2375.670053283905
 21
-2004.890537199186
 31
0.0
  0
LINE
  5
2B1
  8
ZUWAKU
 62
     6
 10
2375.670053283905
 20
-2004.890537199186
 30
0.0
 11
2373.031970104727
 21
-2004.794231025777
 31
0.0
  0
LINE
  5
2B2
  8
ZUWAKU
 62
     6
 10
2373.031970104727
 20
-2004.794231025777
 30
0.0
 11
2370.421670960343
 21
-2004.865708605861
 31
0.0
  0
LINE
  5
2B3
  8
ZUWAKU
 62
     6
 10
2370.421670960343
 20
-2004.865708605861
 30
0.0
 11
2367.858668547866
 21
-2005.104596882537
 31
0.0
  0
LINE
  5
2B4
  8
ZUWAKU
 62
     6
 10
2367.858668547866
 20
-2005.104596882537
 30
0.0
 11
2365.362126908269
 21
-2005.509327782151
 31
0.0
  0
LINE
  5
2B5
  8
ZUWAKU
 62
     6
 10
2365.362126908269
 20
-2005.509327782151
 30
0.0
 11
2362.950728577488
 21
-2006.077156918069
 31
0.0
  0
LINE
  5
2B6
  8
ZUWAKU
 62
     6
 10
2362.950728577488
 20
-2006.077156918069
 30
0.0
 11
2360.64255111852
 21
-2006.80419025318
 31
0.0
  0
LINE
  5
2B7
  8
ZUWAKU
 62
     6
 10
2360.64255111852
 20
-2006.80419025318
 30
0.0
 11
2358.454955527387
 21
-2007.685415937021
 31
0.0
  0
LINE
  5
2B8
  8
ZUWAKU
 62
     6
 10
2358.454955527387
 20
-2007.685415937021
 30
0.0
 11
2356.404488353097
 21
-2008.714736997923
 31
0.0
  0
LINE
  5
2B9
  8
ZUWAKU
 62
     6
 10
2356.404488353097
 20
-2008.714736997923
 30
0.0
 11
2354.506797666777
 21
-2009.884998828271
 31
0.0
  0
LINE
  5
2BA
  8
ZUWAKU
 62
     6
 10
2354.506797666777
 20
-2009.884998828271
 30
0.0
 11
2352.776559637049
 21
-2011.188004093766
 31
0.0
  0
LINE
  5
2BB
  8
ZUWAKU
 62
     6
 10
2352.776559637049
 20
-2011.188004093766
 30
0.0
 11
2351.227407052716
 21
-2012.614508229978
 31
0.0
  0
LINE
  5
2BC
  8
ZUWAKU
 62
     6
 10
2351.227407052716
 20
-2012.614508229978
 30
0.0
 11
2349.644197914941
 21
-2014.412760312438
 31
0.0
  0
LINE
  5
2BD
  8
ZUWAKU
 62
     6
 10
2346.917954607303
 20
-2019.92637623603
 30
0.0
 11
2346.587975957013
 21
-2021.199257246823
 31
0.0
  0
LINE
  5
2BE
  8
ZUWAKU
 62
     6
 10
2346.587975957013
 20
-2021.199257246823
 30
0.0
 11
2346.337351315881
 21
-2023.111526332492
 31
0.0
  0
LINE
  5
2BF
  8
ZUWAKU
 62
     6
 10
2346.337351315881
 20
-2023.111526332492
 30
0.0
 11
2346.321993464314
 21
-2025.053267861428
 31
0.0
  0
LINE
  5
2C0
  8
ZUWAKU
 62
     6
 10
2346.321993464314
 20
-2025.053267861428
 30
0.0
 11
2346.541565829837
 21
-2027.008507844997
 31
0.0
  0
LINE
  5
2C1
  8
ZUWAKU
 62
     6
 10
2346.541565829837
 20
-2027.008507844997
 30
0.0
 11
2346.993598316026
 21
-2028.961485597266
 31
0.0
  0
LINE
  5
2C2
  8
ZUWAKU
 62
     6
 10
2346.993598316026
 20
-2028.961485597266
 30
0.0
 11
2347.67367797879
 21
-2030.896859408912
 31
0.0
  0
LINE
  5
2C3
  8
ZUWAKU
 62
     6
 10
2347.67367797879
 20
-2030.896859408912
 30
0.0
 11
2348.575649388286
 21
-2032.799813784774
 31
0.0
  0
LINE
  5
2C4
  8
ZUWAKU
 62
     6
 10
2348.575649388286
 20
-2032.799813784774
 30
0.0
 11
2349.691783790288
 21
-2034.656097803483
 31
0.0
  0
LINE
  5
2C5
  8
ZUWAKU
 62
     6
 10
2349.691783790288
 20
-2034.656097803483
 30
0.0
 11
2351.012904157951
 21
-2036.452033121542
 31
0.0
  0
LINE
  5
2C6
  8
ZUWAKU
 62
     6
 10
2351.012904157951
 20
-2036.452033121542
 30
0.0
 11
2352.528473760097
 21
-2038.174521513462
 31
0.0
  0
LINE
  5
2C7
  8
ZUWAKU
 62
     6
 10
2352.528473760097
 20
-2038.174521513462
 30
0.0
 11
2354.226664121069
 21
-2039.811067471914
 31
0.0
  0
LINE
  5
2C8
  8
ZUWAKU
 62
     6
 10
2354.226664121069
 20
-2039.811067471914
 30
0.0
 11
2356.094417513524
 21
-2041.349819536858
 31
0.0
  0
LINE
  5
2C9
  8
ZUWAKU
 62
     6
 10
2356.094417513524
 20
-2041.349819536858
 30
0.0
 11
2358.117514574522
 21
-2042.7796272579
 31
0.0
  0
LINE
  5
2CA
  8
ZUWAKU
 62
     6
 10
2358.117514574522
 20
-2042.7796272579
 30
0.0
 11
2360.280652811446
 21
-2044.090108172392
 31
0.0
  0
LINE
  5
2CB
  8
ZUWAKU
 62
     6
 10
2360.280652811446
 20
-2044.090108172392
 30
0.0
 11
2362.567538143992
 21
-2045.271719128242
 31
0.0
  0
LINE
  5
2CC
  8
ZUWAKU
 62
     6
 10
2362.567538143992
 20
-2045.271719128242
 30
0.0
 11
2364.960989393461
 21
-2046.315827256721
 31
0.0
  0
LINE
  5
2CD
  8
ZUWAKU
 62
     6
 10
2364.960989393461
 20
-2046.315827256721
 30
0.0
 11
2367.443054451752
 21
-2047.214777080541
 31
0.0
  0
LINE
  5
2CE
  8
ZUWAKU
 62
     6
 10
2367.443054451752
 20
-2047.214777080541
 30
0.0
 11
2369.995136341963
 21
-2047.961951267925
 31
0.0
  0
LINE
  5
2CF
  8
ZUWAKU
 62
     6
 10
2369.995136341963
 20
-2047.961951267925
 30
0.0
 11
2372.598127211289
 21
-2048.551823318859
 31
0.0
  0
LINE
  5
2D0
  8
ZUWAKU
 62
     6
 10
2372.598127211289
 20
-2048.551823318859
 30
0.0
 11
2375.232548278467
 21
-2048.980001019208
 31
0.0
  0
LINE
  5
2D1
  8
ZUWAKU
 62
     6
 10
2375.232548278467
 20
-2048.980001019208
 30
0.0
 11
2377.87869377962
 21
-2049.243259879142
 31
0.0
  0
LINE
  5
2D2
  8
ZUWAKU
 62
     6
 10
2377.87869377962
 20
-2049.243259879142
 30
0.0
 11
2380.516776958809
 21
-2049.339566052551
 31
0.0
  0
LINE
  5
2D3
  8
ZUWAKU
 62
     6
 10
2380.516776958809
 20
-2049.339566052551
 30
0.0
 11
2383.127076103183
 21
-2049.268088472467
 31
0.0
  0
LINE
  5
2D4
  8
ZUWAKU
 62
     6
 10
2383.127076103183
 20
-2049.268088472467
 30
0.0
 11
2385.69007851568
 21
-2049.029200195791
 31
0.0
  0
LINE
  5
2D5
  8
ZUWAKU
 62
     6
 10
2385.69007851568
 20
-2049.029200195791
 30
0.0
 11
2388.186620155257
 21
-2048.624469296177
 31
0.0
  0
LINE
  5
2D6
  8
ZUWAKU
 62
     6
 10
2388.186620155257
 20
-2048.624469296177
 30
0.0
 11
2390.598018486058
 21
-2048.056640160279
 31
0.0
  0
LINE
  5
2D7
  8
ZUWAKU
 62
     6
 10
2390.598018486058
 20
-2048.056640160279
 30
0.0
 11
2392.906195945016
 21
-2047.329606825148
 31
0.0
  0
LINE
  5
2D8
  8
ZUWAKU
 62
     6
 10
2392.906195945016
 20
-2047.329606825148
 30
0.0
 11
2395.093791536159
 21
-2046.448381141307
 31
0.0
  0
LINE
  5
2D9
  8
ZUWAKU
 62
     6
 10
2395.093791536159
 20
-2046.448381141307
 30
0.0
 11
2397.144258710428
 21
-2045.419060080405
 31
0.0
  0
LINE
  5
2DA
  8
ZUWAKU
 62
     6
 10
2397.144258710428
 20
-2045.419060080405
 30
0.0
 11
2399.041949396749
 21
-2044.248798250077
 31
0.0
  0
LINE
  5
2DB
  8
ZUWAKU
 62
     6
 10
2399.041949396749
 20
-2044.248798250077
 30
0.0
 11
2400.772187426487
 21
-2042.945792984562
 31
0.0
  0
LINE
  5
2DC
  8
ZUWAKU
 62
     6
 10
2400.772187426487
 20
-2042.945792984562
 30
0.0
 11
2402.321340010809
 21
-2041.51928884835
 31
0.0
  0
LINE
  5
2DD
  8
ZUWAKU
 62
     6
 10
2402.321340010809
 20
-2041.51928884835
 30
0.0
 11
2402.535558214039
 21
-2041.275973975507
 31
0.0
  0
ARC
  5
2DE
  8
ZUWAKU
 62
     6
 10
2415.498670638579
 20
-2045.309274840935
 30
0.0
 40
0.8785845027455758
 50
248.9511701848124
 51
405.0000000000002
  0
LINE
  5
2DF
  8
ZUWAKU
 62
     6
 10
2406.407883232159
 20
-2034.975981315039
 30
0.0
 11
2406.476797619459
 21
-2034.801450496344
 31
0.0
  0
LINE
  5
2E0
  8
ZUWAKU
 62
     6
 10
2406.476797619459
 20
-2034.801450496344
 30
0.0
 11
2406.960771106512
 21
-2032.934539831505
 31
0.0
  0
LINE
  5
2E1
  8
ZUWAKU
 62
     6
 10
2406.960771106512
 20
-2032.934539831505
 30
0.0
 11
2407.211395747655
 21
-2031.022270745836
 31
0.0
  0
LINE
  5
2E2
  8
ZUWAKU
 62
     6
 10
2407.226753599221
 20
-2029.080529216921
 30
0.0
 11
2407.007181233689
 21
-2027.125289233331
 31
0.0
  0
LINE
  5
2E3
  8
ZUWAKU
 62
     6
 10
2407.007181233689
 20
-2027.125289233331
 30
0.0
 11
2406.5551487475
 21
-2025.172311481062
 31
0.0
  0
LINE
  5
2E4
  8
ZUWAKU
 62
     6
 10
2406.5551487475
 20
-2025.172311481062
 30
0.0
 11
2405.924684477182
 21
-2023.37813337993
 31
0.0
  0
LINE
  5
2E5
  8
ZUWAKU
 62
     6
 10
2347.513456343254
 20
-2017.158297694736
 30
0.0
 11
2348.086747238141
 21
-2017.37892420986
 31
0.0
  0
LINE
  5
2E6
  8
ZUWAKU
 62
     6
 10
2348.086747238141
 20
-2017.37892420986
 30
0.0
 11
2348.193532009666
 21
-2017.181491180626
 31
0.0
  0
LINE
  5
2E7
  8
ZUWAKU
 62
     6
 10
2348.193532009666
 20
-2017.181491180626
 30
0.0
 11
2347.513456343254
 21
-2017.158297694736
 31
0.0
  0
LINE
  5
2E8
  8
ZUWAKU
 62
     6
 10
2349.666072514282
 20
-2020.981279864549
 30
0.0
 11
2349.464609049793
 21
-2021.758418076692
 31
0.0
  0
LINE
  5
2E9
  8
ZUWAKU
 62
     6
 10
2349.464609049793
 20
-2021.758418076692
 30
0.0
 11
2349.245257257347
 21
-2023.432074943277
 31
0.0
  0
LINE
  5
2EA
  8
ZUWAKU
 62
     6
 10
2349.245257257347
 20
-2023.432074943277
 30
0.0
 11
2349.231795990143
 21
-2025.134025339757
 31
0.0
  0
LINE
  5
2EB
  8
ZUWAKU
 62
     6
 10
2349.231795990143
 20
-2025.134025339757
 30
0.0
 11
2349.424781151573
 21
-2026.852512559045
 31
0.0
  0
LINE
  5
2EC
  8
ZUWAKU
 62
     6
 10
2349.424781151573
 20
-2026.852512559045
 30
0.0
 11
2349.82354302616
 21
-2028.575338004829
 31
0.0
  0
LINE
  5
2ED
  8
ZUWAKU
 62
     6
 10
2349.82354302616
 20
-2028.575338004829
 30
0.0
 11
2350.426019499203
 21
-2030.2898683046
 31
0.0
  0
LINE
  5
2EE
  8
ZUWAKU
 62
     6
 10
2350.426019499203
 20
-2030.2898683046
 30
0.0
 11
2351.228604973916
 21
-2031.983140979345
 31
0.0
  0
LINE
  5
2EF
  8
ZUWAKU
 62
     6
 10
2351.228604973916
 20
-2031.983140979345
 30
0.0
 11
2352.226055497377
 21
-2033.642037491128
 31
0.0
  0
LINE
  5
2F0
  8
ZUWAKU
 62
     6
 10
2352.226055497377
 20
-2033.642037491128
 30
0.0
 11
2353.411462438956
 21
-2035.253483537057
 31
0.0
  0
LINE
  5
2F1
  8
ZUWAKU
 62
     6
 10
2353.411462438956
 20
-2035.253483537057
 30
0.0
 11
2354.776286343511
 21
-2036.804645113049
 31
0.0
  0
LINE
  5
2F2
  8
ZUWAKU
 62
     6
 10
2354.776286343511
 20
-2036.804645113049
 30
0.0
 11
2356.310434152888
 21
-2038.283103273442
 31
0.0
  0
LINE
  5
2F3
  8
ZUWAKU
 62
     6
 10
2356.310434152888
 20
-2038.283103273442
 30
0.0
 11
2358.002363549213
 21
-2039.677002416071
 31
0.0
  0
LINE
  5
2F4
  8
ZUWAKU
 62
     6
 10
2358.002363549213
 20
-2039.677002416071
 30
0.0
 11
2359.839202560018
 21
-2040.975173744856
 31
0.0
  0
LINE
  5
2F5
  8
ZUWAKU
 62
     6
 10
2359.839202560018
 20
-2040.975173744856
 30
0.0
 11
2361.806877233702
 21
-2042.167238154679
 31
0.0
  0
LINE
  5
2F6
  8
ZUWAKU
 62
     6
 10
2361.806877233702
 20
-2042.167238154679
 30
0.0
 11
2363.890243670079
 21
-2043.243692916648
 31
0.0
  0
LINE
  5
2F7
  8
ZUWAKU
 62
     6
 10
2363.890243670079
 20
-2043.243692916648
 30
0.0
 11
2366.073222793052
 21
-2044.195985655889
 31
0.0
  0
LINE
  5
2F8
  8
ZUWAKU
 62
     6
 10
2366.073222793052
 20
-2044.195985655889
 30
0.0
 11
2368.338937312267
 21
-2045.016578033625
 31
0.0
  0
LINE
  5
2F9
  8
ZUWAKU
 62
     6
 10
2368.338937312267
 20
-2045.016578033625
 30
0.0
 11
2370.669850735247
 21
-2045.699000627236
 31
0.0
  0
LINE
  5
2FA
  8
ZUWAKU
 62
     6
 10
2370.669850735247
 20
-2045.699000627236
 30
0.0
 11
2373.047908372044
 21
-2046.237899841989
 31
0.0
  0
LINE
  5
2FB
  8
ZUWAKU
 62
     6
 10
2373.047908372044
 20
-2046.237899841989
 30
0.0
 11
2375.454680217135
 21
-2046.629077261104
 31
0.0
  0
LINE
  5
2FC
  8
ZUWAKU
 62
     6
 10
2375.454680217135
 20
-2046.629077261104
 30
0.0
 11
2377.871505512389
 21
-2046.869521587252
 31
0.0
  0
LINE
  5
2FD
  8
ZUWAKU
 62
     6
 10
2377.871505512389
 20
-2046.869521587252
 30
0.0
 11
2380.279638748864
 21
-2046.957433181109
 31
0.0
  0
LINE
  5
2FE
  8
ZUWAKU
 62
     6
 10
2380.279638748864
 20
-2046.957433181109
 30
0.0
 11
2382.660396885529
 21
-2046.892241101217
 31
0.0
  0
LINE
  5
2FF
  8
ZUWAKU
 62
     6
 10
2382.660396885529
 20
-2046.892241101217
 30
0.0
 11
2384.995307659824
 21
-2046.674612429341
 31
0.0
  0
LINE
  5
300
  8
ZUWAKU
 62
     6
 10
2384.995307659824
 20
-2046.674612429341
 30
0.0
 11
2387.266259036003
 21
-2046.306453461392
 31
0.0
  0
LINE
  5
301
  8
ZUWAKU
 62
     6
 10
2387.266259036003
 20
-2046.306453461392
 30
0.0
 11
2389.455650049407
 21
-2045.790901969371
 31
0.0
  0
LINE
  5
302
  8
ZUWAKU
 62
     6
 10
2389.455650049407
 20
-2045.790901969371
 30
0.0
 11
2391.546543478133
 21
-2045.132309096886
 31
0.0
  0
LINE
  5
303
  8
ZUWAKU
 62
     6
 10
2391.546543478133
 20
-2045.132309096886
 30
0.0
 11
2393.52282073248
 21
-2044.336208445588
 31
0.0
  0
LINE
  5
304
  8
ZUWAKU
 62
     6
 10
2393.52282073248
 20
-2044.336208445588
 30
0.0
 11
2395.36933877492
 21
-2043.409268509994
 31
0.0
  0
LINE
  5
305
  8
ZUWAKU
 62
     6
 10
2395.36933877492
 20
-2043.409268509994
 30
0.0
 11
2397.072087265995
 21
-2042.3592230099
 31
0.0
  0
LINE
  5
306
  8
ZUWAKU
 62
     6
 10
2397.072087265995
 20
-2042.3592230099
 30
0.0
 11
2398.618340858182
 21
-2041.194772490495
 31
0.0
  0
LINE
  5
307
  8
ZUWAKU
 62
     6
 10
2398.618340858182
 20
-2041.194772490495
 30
0.0
 11
2399.708618556592
 21
-2040.190813511798
 31
0.0
  0
LINE
  5
308
  8
ZUWAKU
 62
     6
 10
2404.45162029613
 20
-2038.874509992383
 30
0.0
 11
2404.827618250243
 21
-2038.338168732891
 31
0.0
  0
LINE
  5
309
  8
ZUWAKU
 62
     6
 10
2404.827618250243
 20
-2038.338168732891
 30
0.0
 11
2405.108698263053
 21
-2037.818483410848
 31
0.0
  0
LINE
  5
30A
  8
ZUWAKU
 62
     6
 10
2405.108698263053
 20
-2037.818483410848
 30
0.0
 11
2407.232020477028
 21
-2039.941805624823
 31
0.0
  0
LINE
  5
30B
  8
ZUWAKU
 62
     6
 10
2403.37494280521
 20
-2024.561684058644
 30
0.0
 11
2403.725204037365
 21
-2025.558459073499
 31
0.0
  0
LINE
  5
30C
  8
ZUWAKU
 62
     6
 10
2403.725204037365
 20
-2025.558459073499
 30
0.0
 11
2404.123965911963
 21
-2027.281284519283
 31
0.0
  0
LINE
  5
30D
  8
ZUWAKU
 62
     6
 10
2404.123965911963
 20
-2027.281284519283
 30
0.0
 11
2404.316951073392
 21
-2028.999771738592
 31
0.0
  0
LINE
  5
30E
  8
ZUWAKU
 62
     6
 10
2404.316951073392
 20
-2028.999771738592
 30
0.0
 11
2404.303489806189
 21
-2030.701722135051
 31
0.0
  0
LINE
  5
30F
  8
ZUWAKU
 62
     6
 10
2404.303489806189
 20
-2030.701722135051
 30
0.0
 11
2404.084138013743
 21
-2032.375379001657
 31
0.0
  0
LINE
  5
310
  8
ZUWAKU
 62
     6
 10
2404.084138013743
 20
-2032.375379001657
 30
0.0
 11
2404.027141800825
 21
-2032.595239883705
 31
0.0
  0
LINE
  5
311
  8
ZUWAKU
 62
     6
 10
2404.027141800825
 20
-2032.595239883705
 30
0.0
 11
2398.333667883273
 21
-2026.901765966174
 31
0.0
  0
LINE
  5
312
  8
ZUWAKU
 62
     6
 10
2353.266195650094
 20
-2014.532914352239
 30
0.0
 11
2353.551950802882
 21
-2014.20834586265
 31
0.0
  0
LINE
  5
313
  8
ZUWAKU
 62
     6
 10
2353.551950802882
 20
-2014.20834586265
 30
0.0
 11
2354.930406205354
 21
-2012.939024587853
 31
0.0
  0
LINE
  5
314
  8
ZUWAKU
 62
     6
 10
2354.930406205354
 20
-2012.939024587853
 30
0.0
 11
2356.476659797531
 21
-2011.774574068428
 31
0.0
  0
LINE
  5
315
  8
ZUWAKU
 62
     6
 10
2356.476659797531
 20
-2011.774574068428
 30
0.0
 11
2358.179408288606
 21
-2010.724528568334
 31
0.0
  0
LINE
  5
316
  8
ZUWAKU
 62
     6
 10
2358.179408288606
 20
-2010.724528568334
 30
0.0
 11
2360.025926331055
 21
-2009.79758863274
 31
0.0
  0
LINE
  5
317
  8
ZUWAKU
 62
     6
 10
2360.025926331055
 20
-2009.79758863274
 30
0.0
 11
2362.002203585403
 21
-2009.001487981442
 31
0.0
  0
LINE
  5
318
  8
ZUWAKU
 62
     6
 10
2362.002203585403
 20
-2009.001487981442
 30
0.0
 11
2364.093097014129
 21
-2008.342895108957
 31
0.0
  0
LINE
  5
319
  8
ZUWAKU
 62
     6
 10
2364.093097014129
 20
-2008.342895108957
 30
0.0
 11
2366.282488027523
 21
-2007.827343616936
 31
0.0
  0
LINE
  5
31A
  8
ZUWAKU
 62
     6
 10
2366.282488027523
 20
-2007.827343616936
 30
0.0
 11
2368.553439403712
 21
-2007.459184649007
 31
0.0
  0
LINE
  5
31B
  8
ZUWAKU
 62
     6
 10
2368.553439403712
 20
-2007.459184649007
 30
0.0
 11
2370.888350178007
 21
-2007.241555977111
 31
0.0
  0
LINE
  5
31C
  8
ZUWAKU
 62
     6
 10
2370.888350178007
 20
-2007.241555977111
 30
0.0
 11
2373.269108314662
 21
-2007.176363897219
 31
0.0
  0
LINE
  5
31D
  8
ZUWAKU
 62
     6
 10
2373.269108314662
 20
-2007.176363897219
 30
0.0
 11
2375.677241551146
 21
-2007.264275491097
 31
0.0
  0
LINE
  5
31E
  8
ZUWAKU
 62
     6
 10
2375.677241551146
 20
-2007.264275491097
 30
0.0
 11
2378.09406684639
 21
-2007.504719817224
 31
0.0
  0
LINE
  5
31F
  8
ZUWAKU
 62
     6
 10
2378.09406684639
 20
-2007.504719817224
 30
0.0
 11
2380.500838691492
 21
-2007.895897236339
 31
0.0
  0
LINE
  5
320
  8
ZUWAKU
 62
     6
 10
2380.500838691492
 20
-2007.895897236339
 30
0.0
 11
2382.878896328278
 21
-2008.434796451092
 31
0.0
  0
LINE
  5
321
  8
ZUWAKU
 62
     6
 10
2382.878896328278
 20
-2008.434796451092
 30
0.0
 11
2385.209809751269
 21
-2009.117219044703
 31
0.0
  0
LINE
  5
322
  8
ZUWAKU
 62
     6
 10
2385.209809751269
 20
-2009.117219044703
 30
0.0
 11
2387.475524270484
 21
-2009.937811422459
 31
0.0
  0
LINE
  5
323
  8
ZUWAKU
 62
     6
 10
2387.475524270484
 20
-2009.937811422459
 30
0.0
 11
2389.658503393447
 21
-2010.890104161701
 31
0.0
  0
LINE
  5
324
  8
ZUWAKU
 62
     6
 10
2389.658503393447
 20
-2010.890104161701
 30
0.0
 11
2391.741869829824
 21
-2011.966558923649
 31
0.0
  0
LINE
  5
325
  8
ZUWAKU
 62
     6
 10
2391.741869829824
 20
-2011.966558923649
 30
0.0
 11
2393.709544503518
 21
-2013.158623333472
 31
0.0
  0
LINE
  5
326
  8
ZUWAKU
 62
     6
 10
2393.709544503518
 20
-2013.158623333472
 30
0.0
 11
2395.546383514313
 21
-2014.456794662277
 31
0.0
  0
LINE
  5
327
  8
ZUWAKU
 62
     6
 10
2395.546383514313
 20
-2014.456794662277
 30
0.0
 11
2397.238312910648
 21
-2015.850693804886
 31
0.0
  0
LINE
  5
328
  8
ZUWAKU
 62
     6
 10
2397.238312910648
 20
-2015.850693804886
 30
0.0
 11
2397.389760406022
 21
-2015.996643747946
 31
0.0
  0
LINE
  5
329
  8
ZUWAKU
 62
     6
 10
2363.718075101044
 20
-2012.000336046644
 30
0.0
 11
2365.160921166297
 21
-2011.660578809525
 31
0.0
  0
LINE
  5
32A
  8
ZUWAKU
 62
     6
 10
2365.160921166297
 20
-2011.660578809525
 30
0.0
 11
2367.498546372018
 21
-2011.281610905504
 31
0.0
  0
LINE
  5
32B
  8
ZUWAKU
 62
     6
 10
2367.498546372018
 20
-2011.281610905504
 30
0.0
 11
2369.898285011618
 21
-2011.057939860442
 31
0.0
  0
LINE
  5
32C
  8
ZUWAKU
 62
     6
 10
2369.898285011618
 20
-2011.057939860442
 30
0.0
 11
2372.342215579957
 21
-2010.991017935693
 31
0.0
  0
LINE
  5
32D
  8
ZUWAKU
 62
     6
 10
2372.342215579957
 20
-2010.991017935693
 30
0.0
 11
2374.812091545296
 21
-2011.081183516852
 31
0.0
  0
LINE
  5
32E
  8
ZUWAKU
 62
     6
 10
2374.812091545296
 20
-2011.081183516852
 30
0.0
 11
2377.289471353234
 21
-2011.327652270585
 31
0.0
  0
LINE
  5
32F
  8
ZUWAKU
 62
     6
 10
2377.289471353234
 20
-2011.327652270585
 30
0.0
 11
2379.755852656666
 21
-2011.728518133631
 31
0.0
  0
LINE
  5
330
  8
ZUWAKU
 62
     6
 10
2379.755852656666
 20
-2011.728518133631
 30
0.0
 11
2382.192808575785
 21
-2012.280764475696
 31
0.0
  0
LINE
  5
331
  8
ZUWAKU
 62
     6
 10
2382.192808575785
 20
-2012.280764475696
 30
0.0
 11
2383.455015625269
 21
-2012.650301413404
 31
0.0
  0
LINE
  5
332
  8
ZUWAKU
 62
     6
 10
2400.241113515833
 20
-2019.021458873232
 30
0.0
 11
2401.322691566159
 21
-2020.49175958722
 31
0.0
  0
LINE
  5
333
  8
ZUWAKU
 62
     6
 10
2401.322691566159
 20
-2020.49175958722
 30
0.0
 11
2402.165912367947
 21
-2021.894150997965
 31
0.0
  0
ARC
  5
334
  8
ZUWAKU
 62
     6
 10
2397.494698802851
 20
-2026.753078063229
 30
0.0
 40
2.4405125076266
 50
114.8999999999998
 51
225.0
  0
LINE
  5
335
  8
ZUWAKU
 62
     6
 10
2395.768995859132
 20
-2028.478781006937
 30
0.0
 11
2403.035473786248
 21
-2035.592400862498
 31
0.0
  0
LINE
  5
336
  8
ZUWAKU
 62
     6
 10
2403.035473786248
 20
-2035.592400862498
 30
0.0
 11
2402.212784417357
 21
-2037.113460952607
 31
0.0
  0
LINE
  5
337
  8
ZUWAKU
 62
     6
 10
2402.212784417357
 20
-2037.113460952607
 30
0.0
 11
2401.714726178783
 21
-2037.823914773027
 31
0.0
  0
LINE
  5
338
  8
ZUWAKU
 62
     6
 10
2350.679829093047
 20
-2018.23345325009
 30
0.0
 11
2351.134708903333
 21
-2017.392431655088
 31
0.0
  0
LINE
  5
339
  8
ZUWAKU
 62
     6
 10
2395.099025383823
 20
-2026.287406323437
 30
0.0
 11
2394.392362548506
 21
-2029.922871450794
 31
0.0
  0
ARC
  5
33A
  8
ZUWAKU
 62
     6
 10
2396.788035967534
 20
-2030.388543190565
 30
0.0
 40
2.4405125076266
 50
169.0
 51
224.9999999999982
  0
LINE
  5
33B
  8
ZUWAKU
 62
     6
 10
2395.062333023825
 20
-2032.114246134294
 30
0.0
 11
2397.227513966445
 21
-2034.279427076914
 31
0.0
  0
ARC
  5
33C
  8
ZUWAKU
 62
     6
 10
2396.606260906713
 20
-2034.900680136647
 30
0.0
 40
0.8785845027455758
 50
248.9511701848126
 51
404.9999999999982
  0
LINE
  5
33D
  8
ZUWAKU
 62
     6
 10
2349.644197914941
 20
-2014.412760312438
 30
0.0
 11
2333.290311053814
 21
-2013.870246010494
 31
0.0
  0
ARC
  5
33E
  8
ZUWAKU
 62
     6
 10
2333.274127928298
 20
-2014.358080161036
 30
0.0
 40
0.4881025015253202
 50
88.10000000000002
 51
168.999999999998
  0
LINE
  5
33F
  8
ZUWAKU
 62
     6
 10
2332.794993244493
 20
-2014.264945813094
 30
0.0
 11
2332.073137275563
 21
-2017.97857283702
 31
0.0
  0
ARC
  5
340
  8
ZUWAKU
 62
     6
 10
2332.552271959369
 20
-2018.071707184983
 30
0.0
 40
0.4881025015253202
 50
168.999999999998
 51
249.0000000000001
  0
LINE
  5
341
  8
ZUWAKU
 62
     6
 10
2332.377351666723
 20
-2018.527390126536
 30
0.0
 11
2345.863778650495
 21
-2023.704344406725
 31
0.0
  0
ARC
  5
342
  8
ZUWAKU
 62
     6
 10
2345.339017772569
 20
-2025.071393231387
 30
0.0
 40
1.46430750457596
 50
47.38928590658139
 51
69.00000000000026
  0
ARC
  5
343
  8
ZUWAKU
 62
     6
 10
2336.128114965397
 20
-2014.843453462098
 30
0.0
 40
0.8785845027455749
 50
88.10000000000034
 51
249.0000000000005
  0
LINE
  5
344
  8
ZUWAKU
 62
     6
 10
2346.917954607303
 20
-2019.92637623603
 30
0.0
 11
2335.813258438642
 21
-2015.663682756887
 31
0.0
  0
LINE
  5
345
  8
ZUWAKU
 62
     6
 10
2353.266195650094
 20
-2014.532914352239
 30
0.0
 11
2397.389760406022
 21
-2015.996643747946
 31
0.0
  0
ARC
  5
346
  8
ZUWAKU
 62
     6
 10
2364.053706266569
 20
-2013.425659935685
 30
0.0
 40
1.46430750457596
 50
103.2504547662727
 51
268.1000000000001
  0
ARC
  5
347
  8
ZUWAKU
 62
     6
 10
2383.043580169217
 20
-2014.05561893392
 30
0.0
 40
1.46430750457596
 50
268.1000000000001
 51
433.6815281605987
  0
ARC
  5
348
  8
ZUWAKU
 62
     6
 10
2401.800795632228
 20
-2014.677859856808
 30
0.0
 40
1.46430750457596
 50
226.0590228224415
 51
268.1000000000001
  0
LINE
  5
349
  8
ZUWAKU
 62
     6
 10
2401.189859763344
 20
-2016.122706027071
 30
0.0
 11
2419.137204923484
 21
-2016.718080784996
 31
0.0
  0
ARC
  5
34A
  8
ZUWAKU
 62
     6
 10
2419.121021797968
 20
-2017.205914935559
 30
0.0
 40
0.4881025015253202
 50
348.9999999999998
 51
448.1000000000001
  0
LINE
  5
34B
  8
ZUWAKU
 62
     6
 10
2419.600156481774
 20
-2017.299049283501
 30
0.0
 11
2419.003763171623
 21
-2020.367226882355
 31
0.0
  0
ARC
  5
34C
  8
ZUWAKU
 62
     6
 10
2418.524628487817
 20
-2020.274092534393
 30
0.0
 40
0.4881025015253202
 50
294.9000000000004
 51
348.9999999999997
  0
LINE
  5
34D
  8
ZUWAKU
 62
     6
 10
2418.730137121559
 20
-2020.716822986766
 30
0.0
 11
2407.860275685315
 21
-2025.762444675326
 31
0.0
  0
ARC
  5
34E
  8
ZUWAKU
 62
     6
 10
2408.47680158652
 20
-2027.090636032446
 30
0.0
 40
1.46430750457596
 50
114.9000000000003
 51
186.4074391525502
  0
LINE
  5
34F
  8
ZUWAKU
 62
     6
 10
2405.924684477182
 20
-2023.37813337993
 30
0.0
 11
2416.851715315966
 21
-2018.305974538229
 31
0.0
  0
ARC
  5
350
  8
ZUWAKU
 62
     6
 10
2416.481799775233
 20
-2017.509059723965
 30
0.0
 40
0.8785845027455758
 50
294.9000000000001
 51
448.0999999999976
  0
LINE
  5
351
  8
ZUWAKU
 62
     6
 10
2403.37494280521
 20
-2024.561684058644
 30
0.0
 11
2398.333667883273
 21
-2026.901765966174
 31
0.0
  0
LINE
  5
352
  8
ZUWAKU
 62
     6
 10
2402.165912367947
 20
-2021.894150997965
 30
0.0
 11
2396.467155634162
 21
-2024.539425801383
 31
0.0
  0
LINE
  5
353
  8
ZUWAKU
 62
     6
 10
2351.134708903333
 20
-2017.392431655088
 30
0.0
 11
2400.241113515833
 21
-2019.021458873232
 31
0.0
  0
LINE
  5
354
  8
ZUWAKU
 62
     6
 10
2367.903026170746
 20
-2021.794194712633
 30
0.0
 11
2394.637510400287
 21
-2022.68106889568
 31
0.0
  0
LINE
  5
355
  8
ZUWAKU
 62
     6
 10
2401.714726178783
 20
-2037.823914773027
 30
0.0
 11
2350.679829093047
 21
-2018.23345325009
 31
0.0
  0
LINE
  5
356
  8
ZUWAKU
 62
     6
 10
2399.708618556592
 20
-2040.190813511798
 30
0.0
 11
2349.666072514282
 21
-2020.981279864549
 31
0.0
  0
LINE
  5
357
  8
ZUWAKU
 62
     6
 10
2351.545081802004
 20
-2025.885192358734
 30
0.0
 11
2393.018127065485
 21
-2041.80520285877
 31
0.0
  0
LINE
  5
358
  8
ZUWAKU
 62
     6
 10
2415.186541407364
 20
-2046.132231431274
 30
0.0
 11
2402.535558214039
 21
-2041.275973975507
 31
0.0
  0
LINE
  5
359
  8
ZUWAKU
 62
     6
 10
2402.211230605583
 20
-2045.334104678183
 30
0.0
 11
2417.070453564805
 21
-2051.038025960794
 31
0.0
  0
ARC
  5
35A
  8
ZUWAKU
 62
     6
 10
2351.020320924079
 20
-2027.252241183375
 30
0.0
 40
1.46430750457596
 50
69.00000000000046
 51
193.0320838540865
  0
ARC
  5
35B
  8
ZUWAKU
 62
     6
 10
2367.854476794219
 20
-2023.25769716428
 30
0.0
 40
1.46430750457596
 50
88.10000000000002
 51
249.0000000000013
  0
ARC
  5
35C
  8
ZUWAKU
 62
     6
 10
2392.493366187559
 20
-2043.172251683431
 30
0.0
 40
1.46430750457596
 50
291.9409771775833
 51
429.0000000000014
  0
ARC
  5
35D
  8
ZUWAKU
 62
     6
 10
2394.588961023759
 20
-2024.144571347328
 30
0.0
 40
1.46430750457596
 50
318.0853946908567
 51
448.1000000000001
  0
ARC
  5
35E
  8
ZUWAKU
 62
     6
 10
2401.686469727667
 20
-2046.701153502824
 30
0.0
 40
1.46430750457596
 50
68.99999999999984
 51
132.639760324211
  0
LINE
  5
35F
  8
ZUWAKU
 62
     6
 10
2418.406052550724
 20
-2047.169237396205
 30
0.0
 11
2417.724508541246
 21
-2050.675477367203
 31
0.0
  0
ARC
  5
360
  8
ZUWAKU
 62
     6
 10
2417.24537385744
 20
-2050.58234301924
 30
0.0
 40
0.4881025015253202
 50
249.0000000000002
 51
348.9999999999995
  0
LINE
  5
361
  8
ZUWAKU
 62
     6
 10
2404.45162029613
 20
-2038.874509992383
 30
0.0
 11
2407.232020477028
 21
-2039.941805624823
 31
0.0
  0
LINE
  5
362
  8
ZUWAKU
 62
     7
 10
2342.302138159547
 20
-1973.702358577902
 30
0.0
 11
2343.081515242211
 21
-1969.692811077306
 31
0.0
  0
LINE
  5
363
  8
ZUWAKU
 62
     7
 10
2346.440080879995
 20
-1969.692811077306
 30
0.0
 11
2343.081515242211
 21
-1969.692811077306
 31
0.0
  0
LINE
  5
364
  8
ZUWAKU
 62
     7
 10
2346.440080879995
 20
-1969.692811077306
 30
0.0
 11
2345.71944395023
 21
-1973.400166688347
 31
0.0
  0
ARC
  5
365
  8
ZUWAKU
 62
     7
 10
2346.496765199748
 20
-1973.551262633124
 30
0.0
 40
0.7918701342281876
 50
169.0000000000074
 51
270.0000000000001
  0
LINE
  5
366
  8
ZUWAKU
 62
     7
 10
2346.496765199748
 20
-1974.343132767348
 30
0.0
 11
2354.216750400393
 21
-1974.343132767348
 31
0.0
  0
LINE
  5
367
  8
ZUWAKU
 62
     7
 10
2354.216750400393
 20
-1974.343132767348
 30
0.0
 11
2353.560405291156
 21
-1977.719735634959
 31
0.0
  0
LINE
  5
368
  8
ZUWAKU
 62
     7
 10
2345.532572167532
 20
-1977.719735634959
 30
0.0
 11
2353.560405291156
 21
-1977.719735634959
 31
0.0
  0
ARC
  5
369
  8
ZUWAKU
 62
     7
 10
2345.532572167532
 20
-1978.511605769183
 30
0.0
 40
0.7918701342281876
 50
89.99999999999812
 51
168.9999999999999
  0
LINE
  5
36A
  8
ZUWAKU
 62
     7
 10
2344.755250918014
 20
-1978.360509824405
 30
0.0
 11
2342.168011899942
 21
-1991.670700705126
 31
0.0
  0
LINE
  5
36B
  8
ZUWAKU
 62
     7
 10
2338.809446262168
 20
-1991.670700705126
 30
0.0
 11
2342.168011899942
 21
-1991.670700705126
 31
0.0
  0
LINE
  5
36C
  8
ZUWAKU
 62
     7
 10
2338.809446262168
 20
-1991.670700705126
 30
0.0
 11
2341.33794512733
 21
-1978.66270171396
 31
0.0
  0
ARC
  5
36D
  8
ZUWAKU
 62
     7
 10
2340.560623877812
 20
-1978.511605769183
 30
0.0
 40
0.7918701342281876
 50
349.0000000000003
 51
450.0000000000005
  0
LINE
  5
36E
  8
ZUWAKU
 62
     7
 10
2340.560623877812
 20
-1977.719735634959
 30
0.0
 11
2332.840638677168
 21
-1977.719735634959
 31
0.0
  0
LINE
  5
36F
  8
ZUWAKU
 62
     7
 10
2332.840638677168
 20
-1977.719735634959
 30
0.0
 11
2333.496983786405
 21
-1974.343132767348
 31
0.0
  0
LINE
  5
370
  8
ZUWAKU
 62
     7
 10
2333.496983786405
 20
-1974.343132767348
 30
0.0
 11
2341.524816910029
 21
-1974.343132767348
 31
0.0
  0
ARC
  5
371
  8
ZUWAKU
 62
     7
 10
2341.524816910029
 20
-1973.551262633124
 30
0.0
 40
0.7918701342281876
 50
270.0000000000001
 51
349.00000000001
  0
LINE
  5
372
  8
ZUWAKU
 62
     7
 10
2334.96141138114
 20
-1981.163604579444
 30
0.0
 11
2334.599633542508
 21
-1983.024790212059
 31
0.0
  0
ARC
  5
373
  8
ZUWAKU
 62
     7
 10
2329.866081067954
 20
-1982.104680818731
 30
0.0
 40
4.822148932275776
 50
285.6048457891953
 51
348.9999999999995
  0
ARC
  5
374
  8
ZUWAKU
 62
     7
 10
2331.200419716359
 20
-1986.882184811278
 30
0.0
 40
0.1381942037827943
 50
105.6048457891947
 51
168.9999999999997
  0
LINE
  5
375
  8
ZUWAKU
 62
     7
 10
2330.138004631684
 20
-1991.62358246732
 30
0.0
 11
2331.064764529328
 21
-1986.85581611409
 31
0.0
  0
ARC
  5
376
  8
ZUWAKU
 62
     7
 10
2328.155018082882
 20
-1982.395396335568
 30
0.0
 40
9.438837583892617
 50
282.127509556616
 51
348.9999999999988
  0
LINE
  5
377
  8
ZUWAKU
 62
     7
 10
2337.420437635384
 20
-1984.196411452471
 30
0.0
 11
2338.009955572918
 21
-1981.163604579444
 31
0.0
  0
LINE
  5
378
  8
ZUWAKU
 62
     7
 10
2338.009955572918
 20
-1981.163604579444
 30
0.0
 11
2334.96141138114
 21
-1981.163604579444
 31
0.0
  0
LINE
  5
379
  8
ZUWAKU
 62
     7
 10
2347.672290667292
 20
-1981.163604579444
 30
0.0
 11
2346.655055836855
 21
-1986.396824111556
 31
0.0
  0
ARC
  5
37A
  8
ZUWAKU
 62
     7
 10
2350.746942248923
 20
-1987.192206257295
 30
0.0
 40
4.168473001830384
 50
168.9999999999999
 51
269.9999999999885
  0
LINE
  5
37B
  8
ZUWAKU
 62
     7
 10
2350.746942248923
 20
-1991.360679259109
 30
0.0
 11
2350.908874452556
 21
-1991.360679259109
 31
0.0
  0
LINE
  5
37C
  8
ZUWAKU
 62
     7
 10
2350.908874452556
 20
-1991.360679259109
 30
0.0
 11
2351.806267819852
 21
-1986.743990607494
 31
0.0
  0
LINE
  5
37D
  8
ZUWAKU
 62
     7
 10
2351.806267819852
 20
-1986.743990607494
 30
0.0
 11
2351.414969801338
 21
-1986.743990607494
 31
0.0
  0
ARC
  5
37E
  8
ZUWAKU
 62
     7
 10
2351.414969801338
 20
-1985.022056135262
 30
0.0
 40
1.72193447223917
 50
168.9999999999997
 51
269.9999999999974
  0
LINE
  5
37F
  8
ZUWAKU
 62
     7
 10
2349.72467211527
 20
-1984.693495548519
 30
0.0
 11
2350.410813413064
 21
-1981.163604579444
 31
0.0
  0
LINE
  5
380
  8
ZUWAKU
 62
     7
 10
2350.410813413064
 20
-1981.163604579444
 30
0.0
 11
2347.672290667292
 21
-1981.163604579444
 31
0.0
  0
LINE
  5
381
  8
ZUWAKU
 62
     7
 10
2364.352470887441
 20
-1970.312853969298
 30
0.0
 11
2364.054769155155
 21
-1971.844396611679
 31
0.0
  0
ARC
  5
382
  8
ZUWAKU
 62
     7
 10
2356.886612849813
 20
-1970.451048173083
 30
0.0
 40
7.30232050030506
 50
271.0152301125743
 51
349.000000000001
  0
LINE
  5
383
  8
ZUWAKU
 62
     7
 10
2356.123358745931
 20
-1982.344446458352
 30
0.0
 11
2357.015996685739
 21
-1977.752222360317
 31
0.0
  0
ARC
  5
384
  8
ZUWAKU
 62
     7
 10
2355.34242571949
 20
-1970.451048173083
 30
0.0
 40
11.9190091519219
 50
273.7567084122492
 51
341.5139853209125
  0
ARC
  5
385
  8
ZUWAKU
 62
     7
 10
2367.39743733446
 20
-1974.481326971133
 30
0.0
 40
0.7918701342281876
 50
89.9999999999993
 51
161.5139853209126
  0
LINE
  5
386
  8
ZUWAKU
 62
     7
 10
2367.39743733446
 20
-1973.689456836909
 30
0.0
 11
2372.966218208859
 21
-1973.689456836909
 31
0.0
  0
ARC
  5
387
  8
ZUWAKU
 62
     7
 10
2372.966218208859
 20
-1974.481326971133
 30
0.0
 40
0.7918701342281876
 50
346.2586933201409
 51
450.0000000000038
  0
ARC
  5
388
  8
ZUWAKU
 62
     7
 10
2358.209963758707
 20
-1970.872867375048
 30
0.0
 40
15.98292098840756
 50
277.267166461819
 51
346.258693320142
  0
LINE
  5
389
  8
ZUWAKU
 62
     7
 10
2359.332061586395
 20
-1991.355854575603
 30
0.0
 11
2360.231742198424
 21
-1986.727399069868
 31
0.0
  0
ARC
  5
38A
  8
ZUWAKU
 62
     7
 10
2358.913949363514
 20
-1973.241241187128
 30
0.0
 40
18.11943807199511
 50
271.3222370437007
 51
349.0000000000002
  0
LINE
  5
38B
  8
ZUWAKU
 62
     7
 10
2376.700482323787
 20
-1976.698592962429
 30
0.0
 11
2377.941744243337
 21
-1970.312853969298
 31
0.0
  0
LINE
  5
38C
  8
ZUWAKU
 62
     7
 10
2364.352470887441
 20
-1970.312853969298
 30
0.0
 11
2377.941744243337
 21
-1970.312853969298
 31
0.0
  0
LINE
  5
38D
  8
ZUWAKU
 62
     7
 10
2400.573309801606
 20
-1970.312853969298
 30
0.0
 11
2381.403650417638
 21
-1970.312853969298
 31
0.0
  0
LINE
  5
38E
  8
ZUWAKU
 62
     7
 10
2380.747305308401
 20
-1973.689456836909
 30
0.0
 11
2387.537226171028
 21
-1973.689456836909
 31
0.0
  0
LINE
  5
38F
  8
ZUWAKU
 62
     7
 10
2392.509174460757
 20
-1973.689456836909
 30
0.0
 11
2399.916964692369
 21
-1973.689456836909
 31
0.0
  0
LINE
  5
390
  8
ZUWAKU
 62
     7
 10
2385.066481525974
 20
-1987.984076391519
 30
0.0
 11
2377.658691294363
 21
-1987.984076391519
 31
0.0
  0
LINE
  5
391
  8
ZUWAKU
 62
     7
 10
2397.138372124337
 20
-1987.984076391519
 30
0.0
 11
2390.038429815704
 21
-1987.984076391519
 31
0.0
  0
LINE
  5
392
  8
ZUWAKU
 62
     7
 10
2377.002346185126
 20
-1991.360679259109
 30
0.0
 11
2396.482027015099
 21
-1991.360679259109
 31
0.0
  0
LINE
  5
393
  8
ZUWAKU
 62
     7
 10
2381.403650417638
 20
-1970.312853969298
 30
0.0
 11
2380.747305308401
 21
-1973.689456836909
 31
0.0
  0
ARC
  5
394
  8
ZUWAKU
 62
     7
 10
2387.537226171028
 20
-1974.481326971133
 30
0.0
 40
0.7918701342281876
 50
348.9999999999997
 51
450.0000000000051
  0
LINE
  5
395
  8
ZUWAKU
 62
     7
 10
2388.314547420546
 20
-1974.63242291591
 30
0.0
 11
2385.843802775492
 21
-1987.343302202072
 31
0.0
  0
ARC
  5
396
  8
ZUWAKU
 62
     7
 10
2385.066481525974
 20
-1987.192206257295
 30
0.0
 40
0.7918701342281876
 50
269.9999999999994
 51
348.9999999999999
  0
LINE
  5
397
  8
ZUWAKU
 62
     7
 10
2377.658691294363
 20
-1987.984076391519
 30
0.0
 11
2377.002346185126
 21
-1991.360679259109
 31
0.0
  0
LINE
  5
398
  8
ZUWAKU
 62
     7
 10
2396.482027015099
 20
-1991.360679259109
 30
0.0
 11
2397.138372124337
 21
-1987.984076391519
 31
0.0
  0
ARC
  5
399
  8
ZUWAKU
 62
     7
 10
2390.038429815704
 20
-1987.192206257295
 30
0.0
 40
0.7918701342281876
 50
169.0000000000001
 51
270.0000000000013
  0
LINE
  5
39A
  8
ZUWAKU
 62
     7
 10
2389.261108566186
 20
-1987.041110312497
 30
0.0
 11
2391.731853211239
 21
-1974.330231026355
 31
0.0
  0
ARC
  5
39B
  8
ZUWAKU
 62
     7
 10
2392.509174460757
 20
-1974.481326971133
 30
0.0
 40
0.7918701342281876
 50
90.00000000000003
 51
168.9999999999998
  0
LINE
  5
39C
  8
ZUWAKU
 62
     7
 10
2399.916964692369
 20
-1973.689456836909
 30
0.0
 11
2400.573309801606
 21
-1970.312853969298
 31
0.0
  0
LINE
  5
39D
  8
ZUWAKU
 62
     7
 10
2420.15914920931
 20
-1969.692811077306
 30
0.0
 11
2417.600580793581
 21
-1969.692811077306
 31
0.0
  0
ARC
  5
39E
  8
ZUWAKU
 62
     7
 10
2417.600580793581
 20
-1969.831005281091
 30
0.0
 40
0.1381942037827943
 50
90.00000000000003
 51
151.0614722598196
  0
ARC
  5
39F
  8
ZUWAKU
 62
     7
 10
2400.779238804439
 20
-1960.530361900966
 30
0.0
 40
19.08313544844417
 50
269.999999999989
 51
331.0614722598194
  0
LINE
  5
3A0
  8
ZUWAKU
 62
     7
 10
2400.779238804439
 20
-1979.613497349423
 30
0.0
 11
2399.861100982955
 21
-1979.613497349423
 31
0.0
  0
LINE
  5
3A1
  8
ZUWAKU
 62
     7
 10
2398.734137165912
 20
-1984.825163649663
 30
0.0
 11
2399.725445795934
 21
-1979.725322855999
 31
0.0
  0
ARC
  5
3A2
  8
ZUWAKU
 62
     7
 10
2399.861100982955
 20
-1979.751691553207
 30
0.0
 40
0.1381942037827943
 50
89.99999999998872
 51
168.9999999999997
  0
ARC
  5
3A3
  8
ZUWAKU
 62
     7
 10
2395.554595651674
 20
-1957.590050604178
 30
0.0
 40
27.42008145210494
 50
276.6588077484425
 51
292.9187661784221
  0
ARC
  5
3A4
  8
ZUWAKU
 62
     7
 10
2406.541053139859
 20
-1983.574891649884
 30
0.0
 40
0.7918701342281876
 50
349.0000000000001
 51
472.9187661783919
  0
LINE
  5
3A5
  8
ZUWAKU
 62
     7
 10
2407.318374389377
 20
-1983.725987594661
 30
0.0
 11
2405.774078598955
 21
-1991.670700705126
 31
0.0
  0
LINE
  5
3A6
  8
ZUWAKU
 62
     7
 10
2405.774078598955
 20
-1991.670700705126
 30
0.0
 11
2409.132644236729
 21
-1991.670700705126
 31
0.0
  0
LINE
  5
3A7
  8
ZUWAKU
 62
     7
 10
2409.132644236729
 20
-1991.670700705126
 30
0.0
 11
2411.325248245448
 21
-1980.390730946662
 31
0.0
  0
ARC
  5
3A8
  8
ZUWAKU
 62
     7
 10
2412.406894973816
 20
-1980.600981772087
 30
0.0
 40
1.101891580231848
 50
126.2175779738571
 51
169.0
  0
ARC
  5
3A9
  8
ZUWAKU
 62
     7
 10
2395.554595651674
 20
-1957.590050604178
 30
0.0
 40
27.42008145210494
 50
306.2175779738571
 51
333.8078384872959
  0
LINE
  5
3AA
  8
ZUWAKU
 62
     2
 10
2646.786807991998
 20
-1981.573680115693
 30
0.0
 11
2650.272549071385
 21
-1963.641096847101
 31
0.0
  0
LINE
  5
3AB
  8
ZUWAKU
 62
     2
 10
2665.293635105006
 20
-1963.641096847101
 30
0.0
 11
2650.272549071385
 21
-1963.641096847101
 31
0.0
  0
LINE
  5
3AC
  8
ZUWAKU
 62
     2
 10
2665.293635105006
 20
-1963.641096847101
 30
0.0
 11
2662.070607631865
 21
-1980.22213577763
 31
0.0
  0
ARC
  5
3AD
  8
ZUWAKU
 62
     2
 10
2665.547154057944
 20
-1980.897907946661
 30
0.0
 40
3.541615885037504
 50
169.0000000000074
 51
270.0000000000001
  0
LINE
  5
3AE
  8
ZUWAKU
 62
     2
 10
2665.547154057944
 20
-1984.439523831692
 30
0.0
 11
2700.074560809413
 21
-1984.439523831692
 31
0.0
  0
LINE
  5
3AF
  8
ZUWAKU
 62
     2
 10
2700.074560809413
 20
-1984.439523831692
 30
0.0
 11
2697.139076612609
 21
-1999.541280845205
 31
0.0
  0
LINE
  5
3B0
  8
ZUWAKU
 62
     2
 10
2661.234829079972
 20
-1999.541280845205
 30
0.0
 11
2697.139076612609
 21
-1999.541280845205
 31
0.0
  0
ARC
  5
3B1
  8
ZUWAKU
 62
     2
 10
2661.234829079972
 20
-2003.082896730236
 30
0.0
 40
3.541615885037504
 50
89.99999999999812
 51
168.9999999999999
  0
LINE
  5
3B2
  8
ZUWAKU
 62
     2
 10
2657.758282653893
 20
-2002.407124561204
 30
0.0
 11
2646.18693224081
 21
-2061.936561799018
 31
0.0
  0
LINE
  5
3B3
  8
ZUWAKU
 62
     2
 10
2631.165846207189
 20
-2061.936561799018
 30
0.0
 11
2646.18693224081
 21
-2061.936561799018
 31
0.0
  0
LINE
  5
3B4
  8
ZUWAKU
 62
     2
 10
2631.165846207189
 20
-2061.936561799018
 30
0.0
 11
2642.474483014026
 21
-2003.758668899267
 31
0.0
  0
ARC
  5
3B5
  8
ZUWAKU
 62
     2
 10
2638.997936587946
 20
-2003.082896730236
 30
0.0
 40
3.541615885037504
 50
349.0000000000003
 51
450.0000000000005
  0
LINE
  5
3B6
  8
ZUWAKU
 62
     2
 10
2638.997936587946
 20
-1999.541280845205
 30
0.0
 11
2604.470529836467
 21
-1999.541280845205
 31
0.0
  0
LINE
  5
3B7
  8
ZUWAKU
 62
     2
 10
2604.470529836467
 20
-1999.541280845205
 30
0.0
 11
2607.406014033282
 21
-1984.439523831692
 31
0.0
  0
LINE
  5
3B8
  8
ZUWAKU
 62
     2
 10
2607.406014033282
 20
-1984.439523831692
 30
0.0
 11
2643.310261565908
 21
-1984.439523831692
 31
0.0
  0
ARC
  5
3B9
  8
ZUWAKU
 62
     2
 10
2643.310261565908
 20
-1980.897907946661
 30
0.0
 40
3.541615885037504
 50
270.0000000000001
 51
349.00000000001
  0
LINE
  5
3BA
  8
ZUWAKU
 62
     2
 10
2613.955623379338
 20
-2014.943883409107
 30
0.0
 11
2612.337582636576
 21
-2023.26798141026
 31
0.0
  0
ARC
  5
3BB
  8
ZUWAKU
 62
     2
 10
2591.166908416258
 20
-2019.152819210659
 30
0.0
 40
21.56691927169364
 50
285.6048457891953
 51
348.9999999999995
  0
ARC
  5
3BC
  8
ZUWAKU
 62
     2
 10
2597.134698775965
 20
-2040.520065302527
 30
0.0
 40
0.6180695118831423
 50
105.6048457891947
 51
168.9999999999997
  0
LINE
  5
3BD
  8
ZUWAKU
 62
     2
 10
2592.383078557303
 20
-2061.725826866297
 30
0.0
 11
2596.527984941838
 21
-2040.402132079895
 31
0.0
  0
ARC
  5
3BE
  8
ZUWAKU
 62
     2
 10
2583.514229540909
 20
-2020.453035809254
 30
0.0
 40
42.21492348108961
 50
282.127509556616
 51
348.9999999999988
  0
LINE
  5
3BF
  8
ZUWAKU
 62
     2
 10
2624.953545977109
 20
-2028.508022948583
 30
0.0
 11
2627.590147613975
 21
-2014.943883409107
 31
0.0
  0
LINE
  5
3C0
  8
ZUWAKU
 62
     2
 10
2627.590147613975
 20
-2014.943883409107
 30
0.0
 11
2613.955623379338
 21
-2014.943883409107
 31
0.0
  0
LINE
  5
3C1
  8
ZUWAKU
 62
     2
 10
2670.804657137247
 20
-2014.943883409107
 30
0.0
 11
2666.255104276779
 21
-2038.349303848289
 31
0.0
  0
ARC
  5
3C2
  8
ZUWAKU
 62
     2
 10
2684.555945905143
 20
-2041.90662710149
 30
0.0
 40
18.64337289853928
 50
168.9999999999999
 51
269.9999999999885
  0
LINE
  5
3C3
  8
ZUWAKU
 62
     2
 10
2684.555945905133
 20
-2060.550000000034
 30
0.0
 11
2685.280182923199
 21
-2060.550000000034
 31
0.0
  0
LINE
  5
3C4
  8
ZUWAKU
 62
     2
 10
2685.280182923199
 20
-2060.550000000034
 30
0.0
 11
2689.293748364499
 21
-2039.901995790648
 31
0.0
  0
LINE
  5
3C5
  8
ZUWAKU
 62
     2
 10
2689.293748364499
 20
-2039.901995790648
 30
0.0
 11
2687.543679485468
 21
-2039.901995790648
 31
0.0
  0
ARC
  5
3C6
  8
ZUWAKU
 62
     2
 10
2687.543679485468
 20
-2032.200694508687
 30
0.0
 40
7.701301281958151
 50
168.9999999999997
 51
269.9999999999974
  0
LINE
  5
3C7
  8
ZUWAKU
 62
     2
 10
2679.983872799182
 20
-2030.731216947972
 30
0.0
 11
2683.052619572921
 21
-2014.943883409107
 31
0.0
  0
LINE
  5
3C8
  8
ZUWAKU
 62
     2
 10
2683.052619572921
 20
-2014.943883409107
 30
0.0
 11
2670.804657137247
 21
-2014.943883409107
 31
0.0
  0
LINE
  5
3C9
  8
ZUWAKU
 62
     2
 10
2745.406272578311
 20
-1966.414220445048
 30
0.0
 11
2744.074810336618
 21
-1973.263999867644
 31
0.0
  0
ARC
  5
3CA
  8
ZUWAKU
 62
     2
 10
2712.015442089084
 20
-1967.032289956927
 30
0.0
 40
32.65941366348203
 50
271.0152301125743
 51
349.000000000001
  0
LINE
  5
3CB
  8
ZUWAKU
 62
     2
 10
2708.601810558125
 20
-2020.225163981919
 30
0.0
 11
2712.594107489844
 21
-1999.686576768865
 31
0.0
  0
ARC
  5
3CC
  8
ZUWAKU
 62
     2
 10
2705.109110565988
 20
-1967.032289956927
 30
0.0
 40
53.30741787287801
 50
273.7567084122492
 51
341.5139853209125
  0
ARC
  5
3CD
  8
ZUWAKU
 62
     2
 10
2759.024795454773
 20
-1985.057593343592
 30
0.0
 40
3.541615885037504
 50
89.9999999999993
 51
161.5139853209126
  0
LINE
  5
3CE
  8
ZUWAKU
 62
     2
 10
2759.024795454773
 20
-1981.51597745854
 30
0.0
 11
2783.931004127842
 21
-1981.51597745854
 31
0.0
  0
ARC
  5
3CF
  8
ZUWAKU
 62
     2
 10
2783.931004127842
 20
-1985.057593343592
 30
0.0
 40
3.541615885037504
 50
346.2586933201409
 51
450.0000000000038
  0
ARC
  5
3D0
  8
ZUWAKU
 62
     2
 10
2717.934090107026
 20
-1968.918863931212
 30
0.0
 40
71.4831440347414
 50
277.267166461819
 51
346.258693320142
  0
LINE
  5
3D1
  8
ZUWAKU
 62
     2
 10
2722.952639638477
 20
-2060.528421744906
 30
0.0
 11
2726.976434714598
 21
-2039.827790626579
 31
0.0
  0
ARC
  5
3D2
  8
ZUWAKU
 62
     2
 10
2721.082645019083
 20
-1979.511346147678
 30
0.0
 40
81.03865385234896
 50
271.3222370437007
 51
349.0000000000002
  0
LINE
  5
3D3
  8
ZUWAKU
 62
     2
 10
2800.632390550552
 20
-1994.974250275913
 30
0.0
 11
2806.183897978054
 21
-1966.414220445048
 31
0.0
  0
LINE
  5
3D4
  8
ZUWAKU
 62
     2
 10
2745.406272578311
 20
-1966.414220445048
 30
0.0
 11
2806.183897978054
 21
-1966.414220445048
 31
0.0
  0
LINE
  5
3D5
  8
ZUWAKU
 62
     2
 10
2907.402909303132
 20
-1966.414220445048
 30
0.0
 11
2821.667171521858
 21
-1966.414220445048
 31
0.0
  0
LINE
  5
3D6
  8
ZUWAKU
 62
     2
 10
2818.731687325053
 20
-1981.51597745854
 30
0.0
 11
2849.099408679602
 21
-1981.51597745854
 31
0.0
  0
LINE
  5
3D7
  8
ZUWAKU
 62
     2
 10
2871.336301171638
 20
-1981.51597745854
 30
0.0
 11
2904.467425106318
 21
-1981.51597745854
 31
0.0
  0
LINE
  5
3D8
  8
ZUWAKU
 62
     2
 10
2838.049075923554
 20
-2045.448242986542
 30
0.0
 11
2804.917951988875
 21
-2045.448242986542
 31
0.0
  0
LINE
  5
3D9
  8
ZUWAKU
 62
     2
 10
2892.040251569112
 20
-2045.448242986542
 30
0.0
 11
2860.28596841559
 21
-2045.448242986542
 31
0.0
  0
LINE
  5
3DA
  8
ZUWAKU
 62
     2
 10
2801.982467792061
 20
-2060.550000000034
 30
0.0
 11
2889.104767372308
 21
-2060.550000000034
 31
0.0
  0
LINE
  5
3DB
  8
ZUWAKU
 62
     2
 10
2821.667171521858
 20
-1966.414220445048
 30
0.0
 11
2818.731687325053
 21
-1981.51597745854
 31
0.0
  0
ARC
  5
3DC
  8
ZUWAKU
 62
     2
 10
2849.099408679602
 20
-1985.057593343571
 30
0.0
 40
3.541615885037504
 50
348.9999999999997
 51
450.0000000000051
  0
LINE
  5
3DD
  8
ZUWAKU
 62
     2
 10
2852.575955105681
 20
-1985.733365512623
 30
0.0
 11
2841.525622349644
 21
-2042.582399270522
 31
0.0
  0
ARC
  5
3DE
  8
ZUWAKU
 62
     2
 10
2838.049075923554
 20
-2041.90662710149
 30
0.0
 40
3.541615885037504
 50
269.9999999999994
 51
348.9999999999999
  0
LINE
  5
3DF
  8
ZUWAKU
 62
     2
 10
2804.917951988875
 20
-2045.448242986542
 30
0.0
 11
2801.982467792061
 21
-2060.550000000034
 31
0.0
  0
LINE
  5
3E0
  8
ZUWAKU
 62
     2
 10
2889.104767372308
 20
-2060.550000000034
 30
0.0
 11
2892.040251569112
 21
-2045.448242986542
 31
0.0
  0
ARC
  5
3E1
  8
ZUWAKU
 62
     2
 10
2860.28596841559
 20
-2041.90662710149
 30
0.0
 40
3.541615885037504
 50
169.0000000000001
 51
270.0000000000013
  0
LINE
  5
3E2
  8
ZUWAKU
 62
     2
 10
2856.809421989511
 20
-2041.230854932459
 30
0.0
 11
2867.859754745548
 21
-1984.38182117454
 31
0.0
  0
ARC
  5
3E3
  8
ZUWAKU
 62
     2
 10
2871.336301171638
 20
-1985.057593343592
 30
0.0
 40
3.541615885037504
 50
90.00000000000003
 51
168.9999999999998
  0
LINE
  5
3E4
  8
ZUWAKU
 62
     2
 10
2904.467425106318
 20
-1981.51597745854
 30
0.0
 11
2907.402909303132
 21
-1966.414220445048
 31
0.0
  0
LINE
  5
3E5
  8
ZUWAKU
 62
     2
 10
2994.999999999979
 20
-1963.641096847101
 30
0.0
 11
2983.556878012646
 21
-1963.641096847101
 31
0.0
  0
ARC
  5
3E6
  8
ZUWAKU
 62
     2
 10
2983.556878012646
 20
-1964.259166358981
 30
0.0
 40
0.6180695118831423
 50
90.00000000000003
 51
151.0614722598196
  0
ARC
  5
3E7
  8
ZUWAKU
 62
     2
 10
2908.323920711573
 20
-1922.662312389779
 30
0.0
 40
85.34876202447688
 50
269.999999999989
 51
331.0614722598194
  0
LINE
  5
3E8
  8
ZUWAKU
 62
     2
 10
2908.323920711552
 20
-2008.01107441425
 30
0.0
 11
2904.21757630906
 21
-2008.01107441425
 31
0.0
  0
LINE
  5
3E9
  8
ZUWAKU
 62
     2
 10
2899.1772637833
 20
-2031.320098657749
 30
0.0
 11
2903.610862474934
 21
-2008.511210703497
 31
0.0
  0
ARC
  5
3EA
  8
ZUWAKU
 62
     2
 10
2904.21757630906
 20
-2008.629143926129
 30
0.0
 40
0.6180695118831423
 50
89.99999999998872
 51
168.9999999999997
  0
ARC
  5
3EB
  8
ZUWAKU
 62
     2
 10
2884.956857876786
 20
-1909.511856594649
 30
0.0
 40
122.6355078215554
 50
276.6588077484425
 51
292.9187661784221
  0
ARC
  5
3EC
  8
ZUWAKU
 62
     2
 10
2934.093465861592
 20
-2025.728293911481
 30
0.0
 40
3.541615885037504
 50
349.0000000000001
 51
472.9187661783919
  0
LINE
  5
3ED
  8
ZUWAKU
 62
     2
 10
2937.570012287682
 20
-2026.404066080512
 30
0.0
 11
2930.663194785482
 21
-2061.936561799018
 31
0.0
  0
LINE
  5
3EE
  8
ZUWAKU
 62
     2
 10
2930.663194785482
 20
-2061.936561799018
 30
0.0
 11
2945.684280819103
 21
-2061.936561799018
 31
0.0
  0
LINE
  5
3EF
  8
ZUWAKU
 62
     2
 10
2945.684280819103
 20
-2061.936561799018
 30
0.0
 11
2955.490637759718
 21
-2011.487228818104
 31
0.0
  0
ARC
  5
3F0
  8
ZUWAKU
 62
     2
 10
2960.32827093921
 20
-2012.42756945103
 30
0.0
 40
4.928177684011053
 50
126.2175779738571
 51
169.0
  0
ARC
  5
3F1
  8
ZUWAKU
 62
     2
 10
2884.956857876786
 20
-1909.511856594649
 30
0.0
 40
122.6355078215554
 50
306.2175779738571
 51
333.8078384872959
  0
INSERT
  5
3F2
  8
ZUWAKU
  6
CONTINUOUS
  2
DC_GROUP_1
 10
0.0
 20
0.0
 30
0.0
  0
INSERT
  5
3F3
  8
ZUWAKU
  6
CONTINUOUS
  2
DC_GROUP_2
 10
0.0
 20
0.0
 30
0.0
  0
LINE
  5
3F4
  8
0
  6
CENTER
 62
     4
 10
460.9282845669663
 20
1140.656049466238
 30
0.0
 11
460.9282845669661
 21
18.80402751720317
 31
0.0
  0
LINE
  5
3F5
  8
0
  6
CENTER
 62
     4
 10
-923.0717154330284
 20
1040.656049466241
 30
0.0
 11
-923.0717154330284
 21
-39.30973605404279
 31
0.0
  0
LINE
  5
3F6
  8
0
  6
CENTER
 62
     4
 10
-1028.049988558694
 20
957.4308360530478
 30
0.0
 11
552.135997333663
 21
957.4308360530478
 31
0.0
  0
LINE
  5
3F7
  8
0
  6
CENTER
 62
     4
 10
-1035.460731447674
 20
73.43083605304597
 30
0.0
 11
531.0916150149578
 21
73.43083605304597
 31
0.0
  0
LINE
  5
3F8
  8
0
  6
CENTER
 62
     4
 10
460.9282845669661
 20
-923.0254042585716
 30
0.0
 11
460.9282845669661
 21
-1066.677363558432
 31
0.0
  0
LINE
  5
3F9
  8
0
  6
CENTER
 62
     4
 10
-923.0717154330287
 20
-923.0254042585716
 30
0.0
 11
-923.0717154330287
 21
-1066.677363558432
 31
0.0
  0
LINE
  5
3FA
  8
0
  6
CENTER
 62
     4
 10
-1131.071715433028
 20
-1044.894732905783
 30
0.0
 11
668.9282845669636
 21
-1044.894732905783
 31
0.0
  0
LINE
  5
3FB
  8
0
  6
CENTER
 62
     4
 10
-231.0717154330303
 20
190.3531642723081
 30
0.0
 11
-231.0717154330303
 21
4.784356377411882
 31
0.0
  0
LINE
  5
3FC
  8
0
  6
CENTER
 62
     4
 10
-309.2079283276794
 20
97.43083605304597
 30
0.0
 11
-160.9083849850385
 21
97.43083605304597
 31
0.0
  0
LINE
  5
3FD
  8
0
  6
DASHED
 62
     4
 10
452.6782845669663
 20
-1034.894732905783
 30
0.0
 11
469.1782845669663
 21
-1034.894732905783
 31
0.0
  0
LINE
  5
3FE
  8
0
  6
DASHED
 62
     4
 10
469.1782845669663
 20
-954.8947329057834
 30
0.0
 11
469.1782845669663
 21
-1034.894732905783
 31
0.0
  0
LINE
  5
3FF
  8
0
  6
DASHED
 62
     4
 10
452.6782845669663
 20
-954.8947329057834
 30
0.0
 11
452.6782845669663
 21
-1034.894732905783
 31
0.0
  0
LINE
  5
400
  8
0
  6
DASHED
 62
     4
 10
-931.3217154330284
 20
-1034.894732905783
 30
0.0
 11
-914.8217154330284
 21
-1034.894732905783
 31
0.0
  0
LINE
  5
401
  8
0
  6
DASHED
 62
     4
 10
-914.8217154330284
 20
-954.8947329057834
 30
0.0
 11
-914.8217154330284
 21
-1034.894732905783
 31
0.0
  0
LINE
  5
402
  8
0
  6
DASHED
 62
     4
 10
-931.3217154330284
 20
-954.8947329057834
 30
0.0
 11
-931.3217154330284
 21
-1034.894732905783
 31
0.0
  0
LINE
  5
403
  8
0
  6
DIVIDE
 62
     4
 10
-717.388818900519
 20
-1104.894732905783
 30
0.0
 11
-803.9913592789628
 21
-954.8947329057834
 31
0.0
  0
LINE
  5
404
  8
0
  6
DIVIDE
 62
     4
 10
-687.3888189005188
 20
-1104.894732905783
 30
0.0
 11
-773.9913592789628
 21
-954.8947329057834
 31
0.0
  0
LINE
  5
405
  8
0
  6
DIVIDE
 62
     4
 10
-657.3888189005188
 20
-1104.894732905783
 30
0.0
 11
-743.9913592789628
 21
-954.8947329057834
 31
0.0
  0
LINE
  5
406
  8
0
  6
DIVIDE
 62
     4
 10
-627.3888189005188
 20
-1104.894732905783
 30
0.0
 11
-713.9913592789628
 21
-954.8947329057834
 31
0.0
  0
LINE
  5
407
  8
0
  6
DIVIDE
 62
     4
 10
-597.3888189005188
 20
-1104.894732905783
 30
0.0
 11
-683.9913592789628
 21
-954.8947329057834
 31
0.0
  0
LINE
  5
408
  8
0
 62
     3
 10
-1131.071715433028
 20
1165.430836053048
 30
0.0
 11
-1131.071715433028
 21
-134.5691639469549
 31
0.0
  0
LINE
  5
409
  8
0
 62
     3
 10
668.9282845669636
 20
1165.430836053048
 30
0.0
 11
668.9282845669636
 21
-134.5691639469549
 31
0.0
  0
LINE
  5
40A
  8
0
 62
     3
 10
668.9282845669636
 20
-134.5691639469549
 30
0.0
 11
-1131.071715433028
 21
-134.5691639469549
 31
0.0
  0
LINE
  5
40B
  8
0
 62
     3
 10
668.9282845669636
 20
1165.430836053048
 30
0.0
 11
-1131.071715433028
 21
1165.430836053048
 31
0.0
  0
CIRCLE
  5
40C
  8
0
 62
     3
 10
460.9282845669663
 20
957.4308360530478
 30
0.0
 40
8.25
  0
CIRCLE
  5
40D
  8
0
 62
     3
 10
460.9282845669663
 20
73.43083605304597
 30
0.0
 40
8.25
  0
CIRCLE
  5
40E
  8
0
 62
     3
 10
-923.0717154330284
 20
73.43083605304597
 30
0.0
 40
8.25
  0
CIRCLE
  5
40F
  8
0
 62
     3
 10
-923.0717154330284
 20
957.4308360530478
 30
0.0
 40
8.25
  0
LINE
  5
410
  8
0
 62
     3
 10
668.9282845669636
 20
-954.8947329057834
 30
0.0
 11
668.9282845669636
 21
-1104.894732905783
 31
0.0
  0
LINE
  5
411
  8
0
 62
     3
 10
-1131.071715433028
 20
-954.8947329057834
 30
0.0
 11
-1131.071715433028
 21
-1104.894732905783
 31
0.0
  0
LINE
  5
412
  8
0
 62
     3
 10
-1131.071715433028
 20
-954.8947329057834
 30
0.0
 11
668.9282845669636
 21
-954.8947329057834
 31
0.0
  0
LINE
  5
413
  8
0
 62
     3
 10
-1131.071715433028
 20
-1104.894732905783
 30
0.0
 11
668.9282845669636
 21
-1104.894732905783
 31
0.0
  0
CIRCLE
  5
414
  8
0
 62
     3
 10
-231.07171543303
 20
97.43083605304597
 30
0.0
 40
8.25
  0
INSERT
  5
415
  8
｡｡@@
  6
CONTINUOUS
  2
DA_IMAGEDIMGROUP_1
 10
0.0
 20
0.0
 30
0.0
  0
INSERT
  5
416
  8
｡｡@@
  6
CONTINUOUS
  2
DA_IMAGEDIMGROUP_2
 10
0.0
 20
0.0
 30
0.0
  0
INSERT
  5
417
  8
｡｡@@
  6
CONTINUOUS
  2
DA_IMAGEDIMGROUP_3
 10
0.0
 20
0.0
 30
0.0
  0
INSERT
  5
418
  8
｡｡@@
  6
CONTINUOUS
  2
DA_IMAGEDIMGROUP_4
 10
0.0
 20
0.0
 30
0.0
  0
INSERT
  5
419
  8
｡｡@@
  6
CONTINUOUS
  2
DA_IMAGEDIMGROUP_5
 10
0.0
 20
0.0
 30
0.0
  0
INSERT
  5
41A
  8
｡｡@@
  6
CONTINUOUS
  2
DA_IMAGEDIMGROUP_6
 10
0.0
 20
0.0
 30
0.0
  0
INSERT
  5
41B
  8
｡｡@@
  6
CONTINUOUS
  2
DA_IMAGEDIMGROUP_7
 10
0.0
 20
0.0
 30
0.0
  0
INSERT
  5
41C
  8
｡｡@@
  6
CONTINUOUS
  2
DA_IMAGEDIMGROUP_8
 10
0.0
 20
0.0
 30
0.0
  0
INSERT
  5
41D
  8
｡｡@@
  6
CONTINUOUS
  2
DA_IMAGEDIMGROUP_9
 10
0.0
 20
0.0
 30
0.0
  0
INSERT
  5
41E
  8
｡｡@@
  6
CONTINUOUS
  2
DC_GROUP_3
 10
0.0
 20
0.0
 30
0.0
  0
INSERT
  5
41F
  8
｡｡@@
  6
CONTINUOUS
  2
DC_GROUP_4
 10
0.0
 20
0.0
 30
0.0
  0
INSERT
  5
420
  8
｡｡@@
  6
CONTINUOUS
  2
DC_GROUP_5
 10
0.0
 20
0.0
 30
0.0
  0
INSERT
  5
421
  8
｡｡@@
  6
CONTINUOUS
  2
DC_GROUP_6
 10
0.0
 20
0.0
 30
0.0
  0
INSERT
  5
422
  8
｡｡@@
  6
CONTINUOUS
  2
DA_IMAGEDIMGROUP_10
 10
0.0
 20
0.0
 30
0.0
  0
INSERT
  5
423
  8
｡｡@@
  6
CONTINUOUS
  2
DA_IMAGEDIMGROUP_11
 10
0.0
 20
0.0
 30
0.0
  0
INSERT
  5
424
  8
｡｡@@
  6
CONTINUOUS
  2
DA_IMAGEDIMGROUP_12
 10
0.0
 20
0.0
 30
0.0
  0
TEXT
  5
425
  8
ZUWAKU
 62
     7
 10
2712.468261943757
 20
-1755.000000000032
 30
0.0
 40
45.0
  1
SZAM-150横基礎図
 50
0.0000000000000496
 41
0.515625
  7
FDASTYLE0
 72
     5
 11
3009.468261943757
 21
-1755.000000000032
 31
0.0
  0
LINE
  5
426
  8
ZUWAKU
 62
     5
 10
-2835.000000000017
 20
2083.749999999965
 30
0.0
 11
3017.499999999982
 21
2083.749999999967
 31
0.0
  0
LINE
  5
427
  8
ZUWAKU
 62
     5
 10
3017.499999999982
 20
2083.749999999967
 30
0.0
 11
3017.499999999982
 21
-2092.500000000032
 31
0.0
  0
LINE
  5
428
  8
ZUWAKU
 62
     5
 10
-2835.000000000017
 20
-2092.500000000034
 30
0.0
 11
-2835.000000000017
 21
2083.749999999965
 31
0.0
  0
LINE
  5
429
  8
ZUWAKU
 62
     5
 10
3017.499999999982
 20
-2092.500000000032
 30
0.0
 11
-2835.000000000017
 21
-2092.500000000034
 31
0.0
  0
VIEWPORT
  5
2D
 67
     1
  8
0
 10
91.24999999998272
 20
-4.375000000033651
 30
0.0
 40
17557.5
 41
12528.75000000001
 68
     1
 69
     1
1001
ACAD
1000
MVIEW
1002
{
1070
    16
1010
0.0
1020
0.0
1030
0.0
1020
0.0
1030
0.0
1010
0.0
1020
0.0
1030
1.0
1020
0.0
1030
1.0
1040
0.0
1040
12528.75000000001
1040
91.24999999998272
1040
-4.375000000033651
1040
50.0
1040
0.0
1040
0.0
1070
     0
1070
   100
1070
     0
1070
     1
1070
     0
1070
     0
1070
     0
1070
     0
1040
0.0
1040
0.0
1040
0.0
1040
0.5
1040
0.5
1040
0.0
1040
0.0
1070
     0
1002
{
1002
}
1002
}
  0
ENDSEC
  0
EOF
